-----------------------------------------------------------------------------
Ordinary - Lucky Boys Confusion
-----------------------------------------------------------------------------
Tabbed by:CrazyToute
Email:[email protected]
Tuning:Standard
Intro/Verse
e|----|--------------------------------------------------0-0-0---0-0-0----|
B|----|------------3----0-0h1-0----------------------3---1-1-1---1-1-1----|
G|----|---2--0----------------------0-------2--0---------0-0-0---0-0-0----|x3
D|----|--------2-0--------------0----------------2-0-----2-2-2---2-2-2----|
A|----|---------------3----------------------------------3-3-3---3-3-3----|
E|--33|3--------------------------3-----3----------------0-0-0---0-0-0----|
^
First time only
Chorus
e|---0-0-0--3-3-3-3--2-2-2-2-2-2-2-2---|
B|---1-1-1--0-0-0-0--3-3-3-3-3-3-3-3---|
G|---0-0-0--0-0-0-0--2-2-2-2-2-2-2-2---|x4
D|---2-2-2--0-0-0-0--0-0-0-0-0-0-0-0---|
A|---3-3-3--2-2-2-2--------------------|
E|---0-0-0--3-3-3-3--------------------|
Verse x2
Chorus x4
Bridge
e|---2-2--0-0-0-0--3-3-3-3-3-3-------2-2--0-0-0-0--3-3-0-0-0-0--------------|
B|---3-3--1-1-1-1--0-0-0-0-0-0-------3-3--1-1-1-1--0-0-1-1-1-1--------------|
G|---2-2--0-0-0-0--0-0-0-0-0-0-------2-2--0-0-0-0--0-0-0-0-0-0--------------|
D|---0-0--2-2-2-2--0-0-0-0-0-0-------0-0--2-2-2-2--0-0-2-2-2-2--------------|
A|--------3-3-3-3--2-2-2-2-2-2------------3-3-3-3--2-2-3-3-3-3--------------|
E|--------0-0-0-0--3-3-3-3-3-3------------0-0-0-0--3-3-0-0-0-0--------------|
Bridge cont.
e|---2-2--0-0-0-0--3-3-3-3-3-3-------2-2--0-0-0-0--3-2---0-0-0-0-0-0-0-0----|
B|---3-3--1-1-1-1--0-0-0-0-0-0-------3-3--1-1-1-1--0-3---1-1-1-1-1-1-1-1----|
G|---2-2--0-0-0-0--0-0-0-0-0-0-------2-2--0-0-0-0--0-2---0-0-0-0-0-0-0-0----|
D|---0-0--2-2-2-2--0-0-0-0-0-0-------0-0--2-2-2-2--0-0---2-2-2-2-2-2-2-2----|
A|--------3-3-3-3--2-2-2-2-2-2------------3-3-3-3--2-----3-3-3-3-3-3-3-3----|
E|--------0-0-0-0--3-3-3-3-3-3------------0-0-0-0--3-----0-0-0-0-0-0-0-0----|
Chorus 'til the end then
e|---0---3---2---|
B|---1---0---3---|
G|---0---0---2---|
D|---2---0---0---|
A|---3---2-------|
E|---0---3-------|
=============================================================================




Ваше мнение



Капча