ONE TO THE RIGHT - Lucky Boys Confusion
by - M. Brandon Lee
[email protected]
Intro
e|--------------------7------------|
B|--------------------7------------|
G|--------------------7------------|
D|----9-----7--5--x7--9--99999999--|
A|---9-9---7--5-------9--99999999--|
E|--7---7-5--3--------7--77777777--|
Clean Distortion
e|---------------------------------| e|---------------|
B|---------------------------------| B|---------------|
G|---------------------------------| G|---------------|
D|--9999-7777-5555-7777------------| D|--55555555-----|
A|--9999-7777-5555-7777--x4--------| A|--55555555-----|
E|--7777-5555-3333-5555------------| E|--33333333-----|
Chorus - x2
e|-----------------------------------------------------|
B|-----------------------------------------------------|
G|-----------------------------------------------------|
D|--99-xx-9999-77-55-xx-5555--99-xx-9999-77-5-5-55555--|
A|--99-xx-9999-77-55-xx-5555--99-xx-9999-77-5-5-55555--|
E|--77-xx-7777-55-33-xx-3333--77-xx-7777-55-3-3-33333--|
Riff 1 - Solo
e|----------------5----------------|
B|--7-8-7-5-7-5-7---5-3-0----------|
G|---------------------------------|
D|---------------------------------|
A|---------------------------------|
E|---------------------------------|
Clean Distortion
e|---------------------------------| e|---------------|
B|---------------------------------| B|---------------|
G|---------------------------------| G|---------------|
D|--9999-7777-5555-7777------------| D|--55555555-----|
A|--9999-7777-5555-7777--x4--------| A|--55555555-----|
E|--7777-5555-3333-5555------------| E|--33333333-----|
Chourus
e|-----------------------------------------------------|
B|-----------------------------------------------------|
G|-----------------------------------------------------|
D|--99-xx-9999-77-55-xx-5555--99-xx-9999-77-5-5-55555--|
A|--99-xx-9999-77-55-xx-5555--99-xx-9999-77-5-5-55555--|
E|--77-xx-7777-55-33-xx-3333--77-xx-7777-55-3-3-33333--|
e|-----------------------------------------------------|
B|-----------------------------------------------------|
G|-----------------------------------------------------|
D|--99-xx-9999-77-55-xx-5555--99-xx-9999-77-5----------|
A|--99-xx-9999-77-55-xx-5555--99-xx-9999-77-5----------|
E|--77-xx-7777-55-33-xx-3333--77-xx-7777-55-3----------|
Bridge 1 - x2
e|--------------------------xxxxxxxx-------------------|
B|--------------------------xxxxxxxx-------------------|
G|--------------------5-7-5-xxxxxxxx-5-7-5-------------|
D|--55555555-77777777-5-7-5-xxxxxxxx-5-7-5-------------|
A|--55555555-77777777-3-5-3-xxxxxxxx-3-5-3-------------|
E|--33333333-55555555-------xxxxxxxx-------------------|
Bridge 2 - x5
e|-----------------------------------------------------|
B|-----------------------------------------------------|
G|--------------------55555555-66666666----------------|
D|--55555555-77777777-55555555-66666666----------------|
A|--55555555-77777777-33333333-44444444----------------|
E|--33333333-55555555----------------------------------|
Bridge 2 cont. - x1
e|-----------------------------------|
B|-----------------------------------|
G|-----------------------------------|
D|--55555555-77777777----------------|
A|--55555555-77777777----------------|
E|--33333333-55555555----------------|
Alt. Chorus - x2
e|-----------------------------------|
B|-----------------------------------|
G|-----------------------------------|
D|--99--55--99--5-5-55555------------|
A|--99--55--99--5-5-55555------------|
E|--77--33--77--3-3-33333------------|
Chourus - x2
e|-----------------------------------------------------|
B|-----------------------------------------------------|
G|-----------------------------------------------------|
D|--99-xx-9999-77-55-xx-5555--99-xx-9999-77-5-5-55555--|
A|--99-xx-9999-77-55-xx-5555--99-xx-9999-77-5-5-55555--|
E|--77-xx-7777-55-33-xx-3333--77-xx-7777-55-3-3-33333--|
e|-----------------------------------------------------|
B|-----------------------------------------------------|
G|-----------------------------------------------------|
D|--99-xx-9999-77-55-xx-5555--99-xx-9999-77-5----------|
A|--99-xx-9999-77-55-xx-5555--99-xx-9999-77-5----------|
E|--77-xx-7777-55-33-xx-3333--77-xx-7777-55-3----------|
Clean
e|--7--------------------------------|
B|--7--------------------------------|
G|--7--------------------------------|
D|--9--------------------------------|
A|--9--------------------------------|
E|--7--------------------------------|
If you have any corrections Email me at [email protected]




Ваше мнение



Капча