Bossman
e|----------------------------------------------------------
B|----------------------------------------------------------
G|----------------------------------------------------------
D|---7-7-4--------------------------------------------------
A|---5-5-2-5-5--5-------------------------------------------
E|---------3-3--3-------------------------------------------
verse x4
e|----------------------------------------------------------
B|----------------------------------------------------------
G|----------------------------------------------------------
D|----------------------------------------------------------
A|-77777777-99999999----------------------------------------
E|-55555555-77777777----------------------------------------
chorus
e|----------------------------------------------------------
B|----------------------------------------------------------
G|----------------------------------------------------------
D|---7-7--7-7----------7-7--7-7-----------------------------
A|---5-5--5-5---5--5---5-5--5-5-----5--5--------------------
E|--------------3--3----------------3--3--------------------
e|----------------------------------------------------------
B|----------------------------------------------------------
G|----------------------------------------------------------
D|---7-7--7-7----------7-7--7-7-----------------------------
A|---5-5--5-5---5--5---5-5--5-5---9-9-99---7----------------
E|--------------3--3--------------7-7-77---5----------------
verse
e|----------------------------------------------------------
B|----------------------------------------------------------
G|----------------------------------------------------------
D|---7-7-4--------------------------------------------------
A|---5-5-2-5-5----------------------------------------------
E|---------3-3----------------------------------------------
verse x4
e|----------------------------------------------------------
B|----------------------------------------------------------
G|----------------------------------------------------------
D|----------------------------------------------------------
A|-77777777-99999999----------------------------------------
E|-55555555-77777777----------------------------------------
chorus
e|----------------------------------------------------------
B|----------------------------------------------------------
G|----------------------------------------------------------
D|---7-7--7-7----------7-7--7-7-----------------------------
A|---5-5--5-5---5--5---5-5--5-5-----5--5--------------------
E|--------------3--3----------------3--3--------------------
e|----------------------------------------------------------
B|----------------------------------------------------------
G|----------------------------------------------------------
D|---7-7--7-7----------7-7--7-7-----------------------------
A|---5-5--5-5---5--5---5-5--5-5---9-9-99---7----------------
E|--------------3--3--------------7-7-77---5----------------
bass verse w/beenie man
verse x4
e|----------------------------------------------------------
B|----------------------------------------------------------
G|----------------------------------------------------------
D|----------------------------------------------------------
A|-77777777-99999999----------------------------------------
E|-55555555-77777777----------------------------------------
chorus
e|----------------------------------------------------------
B|----------------------------------------------------------
G|----------------------------------------------------------
D|---7-7--7-7----------7-7--7-7-----------------------------
A|---5-5--5-5---5--5---5-5--5-5-----5--5--------------------
E|--------------3--3----------------3--3--------------------
e|----------------------------------------------------------
B|----------------------------------------------------------
G|----------------------------------------------------------
D|---7-7--7-7----------7-7--7-7-----------------------------
A|---5-5--5-5---5--5---5-5--5-5---9-9-99---7----------------
E|--------------3--3--------------7-7-77---5----------------

e|----------------------------------------------------------
B|----------------------------------------------------------
G|----------------------------------------------------------
D|--11------------------------------------------------------
A|---9--12-11-12-12-----------------------------------------
E|------10--9-10-10-----------------------------------------




Ваше мнение



Капча