-------------------------------------------------------------------------------
ATARI - Lucky Boys Confusion
-------------------------------------------------------------------------------
Tabbed by: PatbergIX
Email:[email protected]
This is my first tab, and im not that great a guitarist, so theres no solo,
sorry. It sounds good to me, but i am open to changes. Email me corrections,
critiques, if you just want to chat, whatever.

Tuning: Standard Tuning

Intro: x5 Then:
e|---------------------------------------------------------------------------|
B|---------------------------------------------------------------------------|
G|----------10-----7-----5-------------------------10-----5------------------|
D|----8-----10-----7-----5-------------------8-----10-----5------------------|
A|----8------8-----5-----3-------------------8------8-----3------------------|
E|----6--------------------------------------6-------------------------------|

Verse: Intro just p.m.

Chorus: x3 Then:

e|---------------------------------------------------------------------------|
B|---------------------------------------------------------------------------|
G|----3------------7-----5--------------------3-----------5------------------|
D|----3------3-----7-----5--------------------3-----3-----5------------------|
A|----1------3-----5-----3--------------------1-----3-----3------------------|
E|-----------1--------------------------------------1------------------------|

Bridge: (I'm wasted and miserable)

e|---------------------------------------------------------------------------|
B|---------------------------------------------------------------------------|
G|-----5-----7-----8---------------------------------------------------------|
D|-----5-----7-----8---------------------------------------------------------|
A|-----3-----5-----6---------------------------------------------------------|
E|---------------------------------------------------------------------------|

Then just the chorus again over the solo, and the chorus until the end of the
song. Thats it, easy.

| / slide up
| slide down
| h hammer-on
| p pull-off
| ~ vibrato
| + harmonic
| x Mute note
===============================================================================




Ваше мнение



Капча