Received: from post-office.nevada.edu (post-office.nevada.edu [131.216.1.11]) by redrock.nevada.edu (8.6.4/8.6.4) with ESMTP id TAA00659 for ; Sun, 2 Jan 1994 19:21:54 -0800
Received: from ucscb.UCSC.EDU (ucscb.UCSC.EDU [128.114.2.8]) by post-office.nevada.edu (8.6.4/8.6.4) with SMTP id TAA18488 for ; Sun, 2 Jan 1994 19:21:51 -0800
Received: by ucscb.UCSC.EDU (5.65/1.34)
id AA28018; Sun, 2 Jan 94 19:21:19 -0800
Date: Sun, 2 Jan 94 19:21:19 -0800
From: [email protected] (Adam Schneider)
Message-Id:
To: [email protected]
Subject: /w/Lucinda.Williams/WhichWill.tab
WHICH WILL (by Nick Drake; recorded by Lucinda Williams)
--------------------------------------------------------
[Key of E; capo up two frets]
CHORDS [each chord is one measure]:
D G
[intro]
G D G D
Which will you go for, which will you love
G D Em A
Which will you choose from, from the stars above
G D G D
Which will you answer, which will you call
G D Em A
Which will you take for, for your one and all
G G [2/4] G [4/4]
Tell me now, which will you love the
D G D G Em A G G D
best [solo]
Which do you dance for, which makes you shine
Which will you choose now if you won't choose mine
Which will you hope for, which can it be
Which will you take now if you won't take me
G G G D G D G D G D.
Tell me now, which will you love the best
GUITAR SOLO:
D G D G
E ----------------|----------------|----------------|----------------|
B 3---2---0-------|----------------|3---2---0-------|----------------|
G ------------2---|0---------------|------------2---|0---------------|
D ----------------|-40-------------|----------------|-40-------------|
A ----------------|----------------|----------------|----------------|
E +---+---+---+---|+---+---+---+---|+---+---+---+---|+---+---+---+---|
Em A G G
E ----------------|----------------|----------------|--------------0-|
B ----------------|----------------|----------------|----------0-2---|
G 0---------------|--------4---2---|----------------|----02----------|
D ---42---------0-|--2-----2---2---|----------------|02--------------|
A ----------------|4-------4---4---|--------02------|----------------|
E +---+---+---+---|+---+---+---+---|3---+---+---+---|+---+---+---+---|
D G D G
E ----------------|----------------|----------------|----------------|
B 3---------------|----------------|----------------|----------------|
G 2---------242---|----------------|----------------|----------------|
D 0---------------|--------0-------|0-------------0-|----------------|
A ----------------|--2-------------|------------02--|----------------|
E +---+---+---+---|3---+---+---+---|+---+---+---+---|3---+---+---+---|
"Which do you...
[Actually, I think the notes I put down here (from this
point on) are being played by two separate guitars. Strum
on the offbeats. It should be pretty easy to figure out.]




Ваше мнение



Капча