Received: from post-office.nevada.edu (post-office.nevada.edu [131.216.1.11]) by redrock.nevada.edu (8.6.4/8.6.4) with ESMTP id TAA00520 for ; Sun, 2 Jan 1994 19:15:48 -0800
Received: from ucscb.UCSC.EDU (ucscb.UCSC.EDU [128.114.2.8]) by post-office.nevada.edu (8.6.4/8.6.4) with SMTP id TAA18250 for ; Sun, 2 Jan 1994 19:15:46 -0800
Received: by ucscb.UCSC.EDU (5.65/1.34)
id AA27787; Sun, 2 Jan 94 19:15:13 -0800
Date: Sun, 2 Jan 94 19:15:13 -0800
From: [email protected] (Adam Schneider)
Message-Id:
To: [email protected]
Subject: /w/Lucinda.Williams/BigRedSunBlues.tab

BIG RED SUN BLUES (Lucinda Williams)
------------------------------------
[Each chord is one measure]
C C G G D D G G
[intro]
C C G G
Everything is going wrong; it's not right anymore
D D G G
We can't seem to get along the way we did before
C C G G
Sun is hanging in the sky, sinking low and so am I
D D G G
Just for the love of someone and a big red sun
C C G G
How'm I gonna lose these big red sun blues
D D G G
Big red sun, big red sun, big red sun blues
True love to hold is worth everything
It's worth more than gold or any diamond ring
But this little diamond and a heart that's been broken
Are all I got from you, big red sun
How'm I gonna lose these big red sun blues
Big red sun, big red sun, big red sun blues
[Instrumental]
Look out at that western sky out over the open plains
God only knows why this is all that remains
But give me one more promise and another kiss
And I guess the deal's still on you big red sun
How'm I gonna lose these big red sun blues
Big red sun, big red sun, big red sun blues
How'm I gonna lose these big red sun blues
Big red sun, big red sun, big red sun blues
C C G G .
[Ending]
TAB:
This might be oversimplified, but it should give the right idea for the intro:
C C G G
E ----------------|----------------|----------------|----------------|
B 1-----3---5---7-|----8-----------|8-7---5-5-3---3-|0---------------|
G ----------------|----------------|9-7---5-5-4---4-|0---------------|
D ----------------|----------------|----------------|----------------|
A ----------------|----------------|----------------|----------------|
E ----------------|----------------|----------------|----------------|
^ . ^ . ^ . ^ . ^ . ^ . ^ . ^ . ^ . ^ . ^ . ^ . ^ . ^ . ^ . ^ .
D D G G
E ----------------|----------------|----------------|----------------|
B --1-0-----------|--1-0-----------|----------------|----------------|
G --2-0-2---------|--2-0-2---------|0---------------|----------------|
D ------4---------|------4---4---4-|0---------------|----------------|
A ----------------|----------5---5-|----------------|----------------|
E ----------------|----------------|----------------|----------------|
^ . ^ . ^ . ^ . ^ . ^ . ^ . ^ . ^ . ^ . ^ . ^ . ^ . ^ . ^ . ^ .




Ваше мнение



Капча