LUCA TURILLI - LEGEND OF STEEL
Tabbed: Esa Mikkola (Finland)
[email protected]
Palm-mute ........
Intro (just the melody)
|---------------------------------------------------------------|
|-10-101010-10-13-11-10-----------------10----------------------|
|-----------------------12-12-121212-12----12-10-9--------------|
|--------------------------------------------------12-121212-12-|
|---------------------------------------------------------------|
|---------------------------------------------------------------|
1st ending
|-------------|-------------------------|-------------------------|
|-------------|-------------------------|-------------------------|
|-------------|-------------------------|-------------------------|
|-12-14-15-12-|-14-17-15-17-14-17-12-17-|-15-19-17-19-15-19-14-19-|
|-------------|-------------------------|-------------------------|
|-------------|-------------------------|-------------------------|
Verse
|--------------------------------------------------------------------|
|--------------------------------------------------------------------|
|--------------------------------------------------------------------|
|-7-7-7-7-7-7-7-7--7-7-7-7-7-7-7-7-----------------------------------|
|-5-5-5-5-5-5-5-5--4-4-4-4-4-4-4-4--5-5-5-5-5-5-5-5--3-3-3-3-2-2-2-2-|
|-----------------------------------3-3-3-3-3-3-3-3--1-1-1-1-0-0-0-0-|
. . . . . . . . . . . . . . . . . . . . .
Pre-chorus
It's time.....
|------------------------------------------------------------|
|------------------------------------------------------------|
|-----------5-----7-----3--------------------5-5-5-5-5-5-5-5-|
|-----3-----5-----7-----3---3-3-3-3-3-3-3-3--5-5-5-5-5-5-5-5-|
|-----3-----3-----5-----1---3-3-3-3-3-3-3-3--3-3-3-3-3-3-3-3-|
|-----1---------------------1-1-1-1-1-1-1-1------------------|
. . . . . . . . . .

Chorus (Just the chords.Listen the cd for rhythm)
Face the king ride the wind for the legend of steel
|---------------------------------------------------------|
|---------------------------------------------------------|
|----------7--------------3-------------5-----------------|
|----------7--------------3-------------5---------3-------|
|----------5--------------1-------------3---------3-------|
|-------------------------------------------------1-------|
leave dark hell behind you forever Face the king (2nd ending)
|-------------------------------------|-----------------|
|-------------------------------------|-----------------|
|------------3------------------2-----|-3----5---7------|
|------------3------2-----------2-----|-3----5---7------|
|------------1------2-----------0-----|-1----3---5------|
|-------------------0-----------------|-----------------|

Part after 2nd chorus (Play 4 times)
|------------------------------------------|
|------------------------------------------|
|------------------------------------------|
|--7-----------------6---------------------|
|--5-555555555555555-4-444444444444444-----|
|------------------------------------------|
............... ...............
Then this:
|----------------------------------------------------------------|
|----------------------------------------------------------------|
|-9-9-9---------6-6-6--6-6-6-------------------------------------|
|-9-9-9--2-2-2--6-6-6--6-6-6--6--------------------6-4-----------|
|-7-7-7--2-2-2--4-4-4--4-4-4--6-666666666666666--------7-6-4-----|
|--------0-0-0----------------4-444444444444444--4-----------7-4-|
...............
Solo (I don't know about this first part. Sounds like
tremolo picked arpeggio.Almost impossible to get right)
tremolo pick those 17's and then sweep rest of those notes.
There are not all notes that are played but you get the idea.
|-17p13----------13-171717171717-13----------13-171717171717-|
|-------15----15--------------------15----15-----------------|
|----------14--------------------------14--------------------|
|------------------------------------------------------------|
|------------------------------------------------------------|
|------------------------------------------------------------|
|-16p12----------12-161616161616-12----------12-161616161616-|
|-------14----14--------------------14----14-----------------|
|----------13--------------------------13--------------------|
|------------------------------------------------------------|
|------------------------------------------------------------|
|------------------------------------------------------------|
next part of the solo
|-16p12----------12-16p12-16p12----------12-17p12-16p12----------12-|
|-------14----14----------------14----14----------------14----14----|
|----------13----------------------13----------------------13-------|
|-------------------------------------------------------------------|
|-------------------------------------------------------------------|
|-------------------------------------------------------------------|
|-16p12-16p12----------12-17p12-16p12----------12-16p12-16p12----------12-|
|-------------14----14----------------14----14----------------14----14----|
|----------------13----------------------13----------------------13-------|
|-------------------------------------------------------------------------|
|-------------------------------------------------------------------------|
|-------------------------------------------------------------------------|
|-17p12-16p12----------12-16p12-16p12----------12-17p12-|
|-------------14----14----------------14----14----------|
|----------------13----------------------13-------------|
|-------------------------------------------------------|
|-------------------------------------------------------|
|-------------------------------------------------------|
|-20-17-16-------------------------------------------------------------|
|----------19-17-16----------------------------------------------------|
|-------------------18-17-14----------------------------------14-17-18-|
|----------------------------18-16-14----------------14-16-18----------|
|-------------------------------------18-16-15-16-18-------------------|
|----------------------------------------------------------------------|
|-------------------------------------------------------------------
|-16-17-19----17h19p17-16-17----------------------------------------
|-------------------------------------------------------------------
|-------------------------------------------------------------------
|-------------------------------------------------------------------
|-------------------------------------------------------------------
keyboards tabbed for guitar
|----------16-21-21-19-21-19h21p19p17-16-----17-------------------21-19-|
|-17----17-------------------------------17-----17----17-19-17-19-------|
|----18--------------------------------------------18-------------------|
|-----------------------------------------------------------------------|
|-----------------------------------------------------------------------|
|-----------------------------------------------------------------------|

|-17-17-16-15-14-----------16-21-21-19-21-21-19-17-19-24-12-|
|-----------------17----17----------------------------------|
|--------------------18-------------------------------------|
|-----------------------------------------------------------|
|-----------------------------------------------------------|
|-----------------------------------------------------------|

|-17-12----12-/17-16-14-17-16-|
|-------14--------------------|
|-----------------------------|
|-----------------------------|
|-----------------------------|
|-----------------------------|
(Play this 2 times)
1st ending
|-12----12-14-15-14-12----12----------------|----------------------------------|
|----12----------------15----15-13-12-15-12-|--13-15-13-12----------12---------|
|-------------------------------------------|--------------14-12-14----14br-14-|
|-------------------------------------------|----------------------------------|
|-------------------------------------------|----------------------------------|
|-------------------------------------------|----------------------------------|
2nd ending
|----------------------------|
|-13-15-13-12----------13-12-|
|-------------14-12-14-------|
|----------------------------|
|----------------------------|
|----------------------------|
Then this 2 times
1st ending
|-10----10-12-13-12-10----10----------------|----------------------------------|
|----10----------------13----13-11-10-13-10-|-11-13-11-10----------10----------|
|-------------------------------------------|-------------12-10-12----12b13r12-|
|-------------------------------------------|----------------------------------|
|-------------------------------------------|----------------------------------|
|-------------------------------------------|----------------------------------|
|----------------------------|
|-11-13-11-10----------11-10-|
|-------------12-10-12-------|
|----------------------------|
|----------------------------|
|----------------------------|
The rest is already tabbed




Ваше мнение



Капча