*******************************************************************************
* LUCA TURILLI - KINGS OF THE NORDIC TWILIGHT (From: King Of Nordic Twilight) *
*******************************************************************************
Music and Words By: Luca Turilli

Transcribed By: Niclas Buss
Days Tabbed: 7.1.2000, 22-23.1.2000 and 23.2.2000
email: [email protected]

Please mail me if you can find mistakes!

-----------------------------------------

Normal Tuning

E----------------------------------------------------------------------------------|
B---Orchestra---|------------------------------------------------------------------|
G-----Intro-----|------------------------------------------------------------------|
D---(53-sec.)---|--7---7---7------------7---7---7----------7-----------------|
A---------------|--5---5---5----8--7----5---5---5---8--7---5-5-5-5-5-5-5-5-5-|
E----------------------------------6--5-------------------6--5---------------------|
pm...............

E----------------------------------------------------------------------------------|
B----------------------------------------------------------------------------------|
G----------------------------------------------------------------------------------|
D----------------------------------------------7-----------------------------------|
A-5-5-5-5-5-5-5-5-5-5-5-5-5-5-5-5-5-5-5--8--7--5-5-5-5-5-5-5-5-5-5-5-5-5-5-5-5-5-5-|
E----------------------------------------6--5--------------------------------------|
......................................| pm.................................

E----------------------------------------------------------------------------------|
B---------------------------------------|------------------------------------------|
G---------------------------------------|------------------------------------------|
D---------------------------------------|--7------7-7-----7-7-----7-7-------------|
A-5-5-5-5-5-5-5-5-5-5-5------8------7---|--5--5-5-5-5-5-5-5-5-5-5-5-5-5-5------4-4|
E------------------------6-6-6--5-5-5--------------------------------------6-6-6-6|
...........................| pm..| pm..| pm..| pm..| pm..|

E----------------------------------------------------------------------------------|
B----------------------------------------------------------------------------------|
G----------------------------------------------------------------------------------|
D-----------------------------------------------------------------5-5-----5-5-----5|
A-----4-4-----4-4-----4-4------3-3-----3-3-----3-3-----3-3--/3-3-3-3-3-3-3-3-3-3-3|




Ваше мнение



Капча