e: Mon, 30 Mar 1998 02:13:35 -0500
From: David McLean
Subject: l/lowest_of_the_low/4_oclock.tab
Song: 4 O'Clock Stop
Artist: Lowest of the Low
Transcribed By: Dave McLean
This is the first Low song I've submitted, but more WILL follow.
4 O'Clock Stop
Em A C D Em A
I don't know why you won't leave me alone. Keep your mind off of me, and
C D Em D Em
keep your fingers away from the phone. Because, I won't return your kiss,
D G Em C D Em
and sometimes ignorance is bliss. Well, I can't handle this.
Em A C D Em A
It's alright for you, it doesn't make you an asshole. It's alright for me,
C D Em D Em D
my life circles around it though. And I shouldn't close your eyes, and kiss
G Em C D Em D
each one a thousand times, if my heart lies.
CHORUS
G D Em
I was standing, minding my own business when you came up and decided
C G D
you'd mind it for me. With a short list of long demands and a five gallon
Em C
pale of sinking sand that you assured me I could take or leave. Though it
G D Em
never seems to work that way, it seems as though there's so much more to say
C
and it's always somewhere in between.
-----------------
-----------------
-----------------
------------2----
--3-2-0-0-2------
-----------------
True or not, it's a four o'clock stop.
SOLO
--------------------------------------------------------------------------
--8/7---7-8-10-8-7-8-7---------------7-----------8/7---7-8-10-8-7-8-7-----
------9----------------9---7---9-9-9---9-7-----------9----------------9---
-------------------------9---9-------------9------------------------------
--------------------------------------------------------------------------
--------------------------------------------------------------------------
--------------------------------------------------------------------------
--------------7-----------------------------------------------------------
----7---9-9-9---9-7-9---------------------7--7-9---------8-7--------------
--9---9------------------7-7-7-7-7-5-7s9-9--9----7-7-7-5-----9-7-5-7-9----
--------------------------------------------------------------------------
--------------------------------------------------------------------------
--------------------------------------------------------------------------
-8/7-----8/7-----8/7------------------------------------------------------
-----9/7-----9/7-----9/7--------------------------------------------------
--------------------------------------------------------------------------
-The-8/7-9/7-patern-continues-until-the-lyrics-start-again----------------
--------------------------------------------------------------------------
G D Em C G D Em C G D
Before I die, before I die. Before I die, before I die. Before I die,
Em C
before I die,
----------------
----------------
----------------
------------2---
--3-2-0-0-2-----
----------------
I would like to see you smile.
Em A C D Em
My heart is dressed in black, and her heart is dressed in green. Cause
A C D Em D
you're beautiful in blue and every other color in between. But rainbows are
Em D G Em C D Em
for skies, and hesitation is for sad regretful eyes, and long goodbyes.
D Em D G Em
Yeah, yeah, yeah, rainbows are for skies, and hesitation is for sad regretful
C D Em C D Em C D
eyes, and long goodbyes. Regretful eyes and long goodbyes. Regretful eyes
Em
and long goodbyes.
Questions, comments and corrections are welcome at [email protected]




Ваше мнение



Капча