From: [email protected] (Bobby Tendinitis)
Subject: Re: TAB: below_and_above.tab by Low
Date: Sat, 25 Oct 1997 03:48:31 GMT

Song: "Below And Above"
Artist: Low
Album: "Long Division" (Vernon Yard, 1995)
Tabbed by: Bobby Tendinitis ([email protected])

Standard Tuning: E A D G B E.

(gently fingerpicked)

E-----------------------------------------------------------
B---5-------5-------3------3-----1-----1-----1-----1--------
G-------0-------0-------0-----0-----0-----0-----0-----0-----
D-----------------------------------------------------------
A---3-------3-------2------2-----0-----0-----0-----0--------
E-----------------------------------------------------------

Verse 1:

Once you felt a- live

Pre- sent for a time

E------------------------------------------------------------
B---6-------6-------5-------5------3-----3-----3-----3-------
G-------0-------0-------0------0------0-----0-----0-----0----
D------------------------------------------------------------
A---5-------5-------3-------3------2-----2-----2-----2-------
E------------------------------------------------------------

Chorus:

Those be- low you hold themselves

E------------------------------------------------------------
B---6-------6-------5-------5------3------3------------------
G-------0-------0-------0------0------0------(let this ring out)
D------------------------------------------------------------
A---5-------5-------3-------3------2------2------------------
E------------------------------------------------------------

Those a- bove you know

Repeat Verse+Chorus pattern again:

Verse 2:
You're a friend of mine
Bound by chains and wires

Chorus

Solo:

E------------------------------------------------------------
B---5-------6---/---8----------------------------------------
G-------------------------7---------5------------------------

repeat once, back to chorus.




Другие песни исполнителя

Just Like Christmas
When I Go Deaf


Ваше мнение



Капча