"She Comes In Colors"
(Arthur Lee)
Intro [fingerpicked electric, 2X]:
A7
v v v v
---------3-------
-------2---------
-----0-----0---0-
---2---------2---
-0---------------
-----------------
Verse 1:
[A7] G
A thought in my head, I think
Fmaj7 A7
Of something to do
G
Expressions tell everything
Fmaj7 A7
I see one on you
Chorus:
D Fmaj7
Whoa-oh-oh-oh, my love she comes in colors
C Em A7
You can tell her from the clothes she wears
Verse 2:
When I was invisible
I needed no light
You saw right through me, you said
Was I out of sight?
[repeat chorus]
[flute break over verse chords]
[repeat chorus]
Instrumental [harpsichord arr. for guitar; 2X]:
C G D F A7
v v v v v v v v / / / / / / / /
---8-------------|-------------8---|-
----8------------|---7810----10----|-
-----9-------10--|-79----7-10------|-
-------10--12----|-----------------|-
---------10------|-----------------|-
-----------------|-----------------|-
[repeat chorus]
Verse 3:
When I was in England town
The rain fell right down
I looked for you everywhere
'Til I'm not around
[repeat chorus]
[repeat instrumental; end cold on A7 second time through]
-- another ace 60's tab from Andrew Rogers




Ваше мнение



Капча