"Orange Skies"
(Bryan Maclean)
Intro [fingerpicked electric, 2X; bass enters 2nd time]:
D F#m/C# Em/B Gm*
v v v v v v v v v v v v v
-----5-------5---|-----5----5--5---|-----0-----------|-3-
---7-------7-----|---7-----7-7-----|---0-0-------0---|-3-
-7-----7-------7-|-6-----6-------6-|-0-----0-----0---|-3-
-----------------|-----------------|-----------0-----|---
-----------------|-----------------|-----------------|---
-----------------|-----------------|-----------------|---
* guitar II plays Bb-C-Db-C-Bb in octaves over Gm chord
Verse 1:
D F#m/C#
Orange skies
Em/B Gm Dm9 xx0210
Carnivals and cotton candy and you
-0--0--0----0---0-----0---0---0--0-
-1--0--1----3---1-----0---1---0--1-
-2--0--2----4---2-----0---2---0--2-
-0--0--0----0---0-----0---0---0--0-
-----------------------------------
-----------------------------------
[D E F G F E D C D




Ваше мнение



Капча