e: Sat, 28 Mar 1998 19:09:08 -0500
From: Dann Butterfield
Subject: TAB: "I'm With You" by Love
I'm With You
(Arthur Lee)
LOVE
From Four Sail, 1968
*****
This is not exact; I don't have a copy of the song
available, but it's a start
*****
Intro:
Dm9
-----0----0-----0---------------------------------------
-------6----6-----6----5-5-5-5-5-3-3-3-3-3--1-0-1-0-1---
---7-----7----7-----7--6-6-6-6-6-4-4-4-4-4--2-2-2-2-2---
-7------------------------------------------------------
--------------------------------------------------------
--------------------------------------------------------
F C G A
---------------------0--
-----1---------------2--
---2-------0---------2--
-3-------2-------0---2--
-------3-------0-----0--
-------------3----------
Verse Chords:
Amaj7 / / / / / / / G / / / / Am Asus2 Am Asus2 Am
F / / / C / / / G / / / A
Verse 1:
Amaj7 G
I'll be with you, my love, if you
Am Asus2 Am Asus2 Am F
You say you want me, ooh
C G A
Anything you want I'll try to get it for you
Verse 2:
I'll be with you, my love, in case
You have forgotten, ooh
And in Manhattan I'll be walkin' down Broadway with you
Bridge:
G
And if it's crowded there
F# F
You might see me anywhere
Em C D
I've got time
(scat vocal over verse chords)
Bridge 2:
(scat vocal over:)
G / / / / / / /
F# / / / F / / /
Em / C / A / / /
Em / C / D / / /
(verse chords)
(repeat bridge 2)
(scat vocal over verse chords)
Amaj7 G
I'll be with you, my love, if you
Am Asus2 Am Asus2 Am F
You say you want me, ooh
C G
Anything you want I'll try to get it for
Dm9
-----0----0-----0---------------------------------------
-------6----6-----6----5-5-5-5-5-3-3-3-3-3--1-0-1-0-1---
---7-----7----7-----7--6-6-6-6-6-4-4-4-4-4--2-2-2-2-2---
-7------------------------------------------------------
--------------------------------------------------------
--------------------------------------------------------
You.....
F C G A
---------------------0--
-----1---------------2--
---2-------0---------2--
-3-------2-------0---2--
-------3-------0-----0--
-------------3----------
** end **
*****
by Dann Butterfield [email protected]
*****




Ваше мнение



Капча