Date: Thu, 28 Nov 1996 14:47:52 -0600 (CST)
From: Avelino Andreti B
Subject: Tab: Sweet Lover Hang Over by Love And Rockets
TAB: Sweet lover hang over by Love and Rockets
Number 2
From Gothic Guitar Tab Mailing list
Riff A F# B Riff B
Eb-----------2--2--2--2--2--2--2--2--2--2--2---||--------------9--------
Bb-----------2--2--2--2--4--4--4--4--4--4--4---||--------------11-------
Gb-----------3--3--3--3--4--4--4--4--4--4--4--*||--------------11-------
Db-----------4--4--4--4--4--4--4--4--4--4--4--*||--------------11-------
Ab--0p2p4h4--4--4--4--4--2--2--2--2--2--2--2---||--------------9--------
Eb--------2--2--2--2--2--2--2--2--2--2--2--2---||--------------9--------
Swep up and down with Wah pedal Bridge
Eb--------------------------7-----------------||------------9-----------
Bb--------------------------7-----------------||------------11----------
Gb--------------------------8-----------------||*-----------11----------
Db--------------------------9-----------------||*-----------11----------
Ab--------------------------9-----------------||------------9-----------
Eb--------------------------7-----------------||------------9-----------
Let it ring with Wah pedal
Eb--------------7--------------------------------------||---------------
Bb--------------7--------------------------------------||---------------
Gb--------------8--------------------------------------||---------------
Db--------------9--------------7--7--7--7--7--7--7--7--||---------------
Ab--------------9--------------------------------------||---------------
Eb--------------7--------------------------------------||---------------
The Riff A is played with an acoustic Guitar in the beginning of the song and some parts in the middle.
The other part (Riff B) is played with a loud distorted guitar with Wah-Wah Pedal.
After the bridge is played by a sinth over the riff-a a secuence of C#, D# and E.
Enjoy.Additions, comments,corrections:
mailto:[email protected]
http://www-lce.cem.itesm.mx/alumnos/al448482/
OLGA needs you. Send me your contribuitions.
This mailing list (GTML) is not related with OLGA.
========================================================================
== TABLATURE EXPLANATION ==
========================================================================
---------- ---------- ----t---
----5h8--- Hammeron ----(8)--- Ghost ----6--- Tap
---------- ---------- Note --------
----5p8--- Pulloff ---------- --------
---------- ---------- -----p--
----5/8--- Slide Up -----x---- Dead -----7-- Pop
---------- ---------- Note --s-----
----5\8--- Slide Down ---------- --5----- Slap
---------- ||------|| Repeat --------
----5~~~-- Vibrato ||*----*|| ---5^--- Bend
---------- ||*----*|| --------
---------- ||------|| --------
---------- ---------- --------
-4:------- Time ---------- --------
-4:------- Signature ---------- --------
---------- ---------- --------
Rhythm:
w = whole note W = dotted whole
h = half note H = dotted half
q = quarter note Q = dotted quarter
e = eighth note E = dotted eighth
s = sixteenth note S = dotted sixteenth
t = 32nd note T = dotted 32nd
x = 64th note X = dotted 64th
^ = triplet




Ваше мнение



Капча