Dropped D Tuning, tuned down 1/2 step

Riff 1
Intro/Verse
PM------------------------------------------------------|
e------------------------------------------------------------|
B-------------------------------------------- Play about 1-|4x
G------------------------------------------------------------| then...
D------------------------------------------------------------|
A----------2-2-2---------------------------------------------|
D----0-0-3-------3-0-----------------------------------------|
One trick pony in a one horse town...

Riff 2
e--------------------------------------------|
B--------------------------------------------| Play 8x
G----------4-4-4-----------------------------| then...
D----0-0-3-4-4-4-3-0-------------------------|
A----0-0-3-2-2-2-3-0-------------------------|
D----0-0-3-------3-0-------------------------|
What's wrong with me

Riff 3
Chorus
e-----------------------------------------------------------|
B-----------------------------------------------------------|
G----7-7--7-7-7-5--5-5--5-5-5-5-4-4--4-4-4------------------| Play 4x
D----7-7--7-7-7-5--5-5--5-5-5-5-4-4--4-4-4-3-3-3-3-2-2-2-2--|
A----5-5--5-5-5-3--3-3--3-3-3-3-2-2--2-2-2-3-3-3-3-2-2-2-2--|
D------------------------------------------3-3-3-3-2-2-2-2--|
Got a life of scratching tickets...

Play riff 2 8x, then..

Play riff 3 4x, then..

Riff 4, Play 4x
Chorus riff/different strumming
e----------------------------------------------------------------------|
B----------------------------------------------------------------------|
G----7-7-7-7-7-7-7-7-5-5-5-5-5-5-5-5-4-4-4-4-4-4-4-4-------------------|
D----7-7-7-7-7-7-7-7-5-5-5-5-5-5-5-5-4-4-4-4-4-4-4-4-3-3-3-3-2-2-2-2---|
A----5-5-5-5-5-5-5-5-3-3-3-3-3-3-3-3-2-2-2-2-2-2-2-2-3-3-3-3-2-2-2-2---|
D----------------------------------------------------3-3-3-3-2-2-2-2---|
What's wrong with me?

Interlude
PM-----| PM----------------------------------------------|
e----------| e------------------------------| e------------|
B----------| Play B----------2-/-14--14-14-14-14-| Play B------------|
G----------| 15x G----------3-/-15--15-15-15-15-| 3x G------------| 8x
D--0-0-3-0-| then D--0-0-3-0-2-/-13--13-13-13-13-| then D--0-0-3-0---| then
A--0-0-3-0-| A--0-0-3-0---------------------| A--0-0-3-0---|
D--0-0-3-0-| D--0-0-3-0---------------------| D--0-0-3-0---|

Riff 3 play 4x then

Riff 4 play 4x then

End with Riff 2 Play 4x and end on this chord D--4--
A--4--
D--2--




Ваше мнение



Капча

Рекомендуем