From: Андрюха [email protected]
Куплет:
В начале каждого такта проведите медиатором по струнам сверху вниз,
Потом извлекайте отдельные ноты. При игре пальцами проводить можно большим
Пальцем или указательным (более звонкий ногтевой способ).
E|-0---------------|-1-------1-------|-0-------0-------|-3-------3-------|
H|-1---------------|-1---1-------1---|-1---1-------1---|-0---0-------0---|
G|-2-------------0-|-2-2---2---2---2-|-0-0---0---0---0-|-0-0---0---0---0-|
D|-2---------0-2---|-3---------------|-2---------------|-0---------------|
A|-0---0-2-3-------|-3---------------|-3---------------|-2---------------|
E|-----------------|-1---------------|-----------------|-3---------------|
Ты неси меня река За крутые берега Где поля
Где поля мои поля Где леса Где леса мои леса Ты неси
Ты неси меня река Да в родные мне места Где живёт
E|-0---------------|-1-------1-------|-0---------------|
H|-1---------------|-1---1-------1---|-0---------------|
G|-2-------------0-|-2-2---2---2---2-|-1---------------|
D|-2---------0-2---|-3---------------|-2---------------|
A|-0---0-2-3-------|-3---------------|-2---------------|
E|-----------------|-1---------------|-0---------------|
Где живёт моя моя краса Голубые у неё глаза
Припев:
Примерный бой: бас - 3-я струна - удар по нижним струнам - 3-я струна.
При игре пальцами вместо удара по нижним струнам щиплется 1-я и 2-я струна.
Аккорды: Am[x02210], F[133211], C[x32010], E7[022130], Am/G[302210],
Dm[xx0231].
Am F C E7
Как ночка Тёмная
Am F C E7
Как речка быстрая
Am Am/G Dm E7
Как одинокая луна
Am Dm Am E7 Am
На небе ждёт меня она
Куплет:
За туманом огонёк Огонёк
Как же он ещё далёк Ой далёк
Ты мне ветер помоги
Милой весточку шепни Знаю ждёт
Знаю ждёт меня моя краса
Проглядела в ночь глаза
Припев:
Соло:
В оригинале сыграно на аккордеоне, но вполне играбельно на гитаре.
* - нужно не бить по струнам, а проводить по ним (арпеджио), как это было
В куплете, но быстрее. Упор делайте на высоких солирующих струнах, именно
На них ведется мелодия. При игре пальцами (а эта оранжировка удобнее для
Медиатора) можно просто щипать бас и нижнюю струну, но звучит беднее.
Совет по аппликатуре: G предпочтительнее зажимайть мизинцем(1-я струна),
Безымянным(6-я) и средним (5-я) пальцами.
* * *
E|-3-1-0---0---3---|-3-1-0-------0---|-0---------------|---------3---1---|
H|-0-----3-1---1---|-0-----3-1---1---|-0-3-1-0-----1---|-----1---0---0---|
G|-0-------0---0---|-0-------2---2---|-1-------2---2---|-0---0---0---0---|
D|-0-------2---2---|-0-------2---2---|-2-------3---3---|-2---2---0---0---|
A|-2-------3---3---|-2-------0-------|-2-------3-------|-3---3---2---2---|
E|-3---------------|-3---------------|-0-------1-------|---------3---3---|
* *
E|-0-------3---3---|-3-1-0-------0---|-0---------------|---------3---1---|
H|-1-------1---1---|-0-----3-1---1---|-0-3-1-0-----1---|-----1---0---0---|
G|-0-------0---0---|-0-------2---2---|-1-------2---2---|-0---0---0---0---|
D|-2-------2---2---|-0-------2---2---|-2-------3---3---|-2---2---0---0---|
A|-3-------3---3---|-2-------0-------|-2-------3-------|-3---3---2---2---|
E|-----------------|-3---------------|-0-------1-------|---------3---3---|
Ты неси меня река за крутые берега
* * *
E|-0-------8---3---|-3-----------0---|-0---------------|-0---------------|
H|-1-------8---5---|-3-6-5-3-1---1---|-0-3-1-0-----1---|-0---------------|
G|-0-------9---5---|-4-------2---2---|-1-------2---2---|-1---------------|
D|-2-------10--5---|-5-------2---2---|-2-------3---3---|-2---------------|
A|-3-------10--3---|-5-------0-------|-2-------3-------|-2---------------|
E|---------8-------|-3---------------|-0-------1-------|-0---------------|
Ты неси меня река за крутые берега Голубые у неё глаза




Ваше мнение



Капча

Комментарии

Александр
Отличная подборочка! Спасибо