From: Jorkay [email protected]
Любэ Луговая трава
Посвящается Тёме и Славе, познакомившим меня с этой замечательной песней.
Попытался подобрать в той тональности, в которой она исполняется в оригинале.
Intro
G B Em G B Am7 Em
El-----------3--2--0--1 1-----------3--2--0---0-0---------------0--l
Bl-8-7-5-----0--4--0--1 1-8-7-5-----0--4--1-------3-1-0-0-------0--l
Gl-------7-5-0--4--0--1 2 раза 1-------7-5-0--4--0---------------2-0---0--l
Dl-----------0--4--2--1 1-----------0--4--2-------------------4-2--1
Al-----------2--2--2--1 1-----------2--2--0---------------------2--l
El-----------3--2--0--1 1-----------3--2--0---------------------0--l
Куплет 1
Играется боем, каким – не принципиально, главное, чтобы в ритм попадал :)
Em B G
Брат, ты слышишь эти звуки?
B Em
В них сердец глухие стуки.
B G
Там молитва через мат,
B Em
Где в нагрудный крестик град
D Em
Пуль, что, дуры, ошалели.
B Em Am7
Глаз, которые в прицел смотрели,
B Em Am7
Рук дрожащих мелкой сталью,
B Em C Em
Взгляд, застывший дальней далью.
Припев
Em C G B
Луговая трава.
Em C G B
Луговые цветы.
Em D G B
Луговая земля
Em B Em
Луговые версты.
Ещё раз то же самое, и после этого:
Em
E1-0-0------0--1
B1-----3-1--0--1
G1----------0--1
D1----------2--1
A1----------2--1
E1----------0--1
Em B Em
Фронтовые версты.
Куплет 2
D1-----------------------------------1
A1---------5-5-5-5-------------------1 2 раза
E1-0-0-0-0---------3-3-3-3--7-7-7-7--1
Во время проигрыша поётся:
Сестра, скажи, я жив,
Или мне это только снится?
Росы капли на ресницах.
Ртом схватить бы
Улетающую душу,
Вновь молчаньем крик нарушу.
Дальше боем:
Em B Em
Здесь бьёт по нервам память,
B Em
Где можно только ранить.
B G
Тут рюмка с хлебом вам,
C B
Тем, кто остался там.
Припев
Если играть на электрогитаре, то включается distortion, и правой рукой глушатся струны. Если нет, то и не надо. Без всяких эффектов тоже ничего звучит, вроде. :)
G1----------7-7-7-7--------------------1
D1-2-2-2-2--7-7-7-7--5-5-5-5--9-9-9-9--1
A1-2-2-2-2--5-5-5-5--5-5-5-5--9-9-9-9--1
E1-0-0-0-0-----------3-3-3-3--7-7-7-7--1
Этот отрезок играть 3 раза полностью, а на четвёртый – половину.
В это время поётся текст припева.
А теперь вторая часть припева, но уже боем, как и до этого.
Соло в конце песни
E1----------------------------------------------------------------------1
B1-0-0---0-1-0-0---0-1-0-0---0-1-3-3-4-1-0-0-0---0-1-0-0---0-1-0--------1
G1-----2---------2---------2-------------------2---------2-------2-0----1
D1-------------------------------------------------------------------4--1
E1----------------------15-14----------------------15-14--------1
B1-12-12-12-10-12-13-12-------------12-10-12-13-12--------------1
G1--------------------------------------------------------------1
D1----------------------------16-14----------------------16-14--1
E1----------------19-17-------15-14-12--1
B1-12-10-12-13-15-----------------------1
G1--------------------------------------1
D1----------------------19-17-----------1
Ну вот и всё, всяческие дополнения и уточнения приветствуются. Это мой первый более-менее полный подбор, так что ошибки неизбежны. :)))
С уважением, Jorkay




Ваше мнение



Капча