; подобрал: Roman aka Стратег (iсq:8026787)
Вступление: Gm Dm A7 Dm Gm Dm A Dm
Dm Am/С
Был близок сумерек закат печальный
A# A Dm
Я чувствовал что точки ставить рано
Am/С
Но вы по прежнему молчали
A# A Dm
Я понял что вы вы мне не по карману
Gm Dm A A#
А вы по карману только капитану
Gm Dm
А для Петьки морячка
A D7
Не зажгете маячка
Gm Dm A A#
А вы по карману только капитану
Gm Dm
А для Петьки морячка
A Dm
Не зажгете маячка
Рас вы не хотите со мною целоваться
Я тоже не намерен пред вами кувыркаться
У Петьки моториста дамы из различных стран
Интима добивались забыв про стыд и срам
А вы по карману только капитану
А вот для Петьки морячка
Не зажгете маячка
Вы по карману токо капитану
А для Петьки морячка
Не зажгете маячка
Соло
Шапка бескозырочка ленточка атласная
Плавал я во всех морях от белого до красного
С вами повстречался я возле ресторана
На вас одежа грязная я в чине капитана
Теперь вы по карману Петьке капитану
Но теперь моя душа
Вам не дам я ни гроша
Теперь вы по карману Петьке капитану
Но теперь моя душа
Вам не дам я ни гроша
Ни гроша ни гроша
Холодная моя душа
Ни гроша ни гроша
Холодная моя душа
Dm Am/С A# A Dm
G|-------------|-------------|-------|--------|---------|
D|-0-3-0---3-0-|---2-------2-|---3---|-2---2--|-0-----0-|
A|-------0-----|-3---3-0-3---|-1---1-|---0----|---0-3---|
E|-------------|-------------|-------|--------|---------|
; так как песня исполняется на аккордионе, то повторить на одной гитаре сие
; довольно проблематично, эта табулатура является лишь "импровизацией на
; тему". исполнять лучше всего на второй гитаре (бас), но при отсутствии
; вполне можно играть на одной, зажимая к каждому аккорду данные басы.
; например:
Dm Am /С
A|---1--1--1---1--1--1---|--0--0--0----0--0--0---|
E|---3--3--3---3--3--3---|--1--1--1----1--1--1---|
G|---2--2--2---2--2--2---|--2--2--2----2--2--2---|
D|-0--3--0-------3--0----|----2-------------2----|
A|------------0----------|-3-----3--0----3-------|
E|-----------------------|-----------------------|




Ваше мнение



Капча