;transсribed bу ilуaz (2:5090/44.2 & [email protected])
Intro: D G D A G D (x2)
Verse:
D
А знаешь, Сережка, мне нравится
D
Одна девчонка красивая.
G
Я ее видел без платьица
D A G D
Уже на пляже вчера. На пляже вчера.
Сhorus:
D С G A D С G A
2|--------6------------------ --------6---8---8b10r8-6b7r6---
3|--7р6h7---7р5h7-7---7^----- --7р6h7---7---7--------------7-
4|------------------9---9---- -------------------------------
Эх, чертовка недур_на ! Эх, чертовка недур____на !
D С G A G A
2|--------6------------------
3|--7р6h7---7р5h7-7---7^-----
4|------------------9---9----
Эх, чертовка неду_рна !
Intro:
1|-----10- 2|----8-
2|-9b10--- (x?) 3|------ (x?)
4|-8h9--
Verse:
Сhorus:
Solo:
1|-----8-8----8-8/10~----10^-10^-10^-10---8b10v~~~r8----8-----------------
2|-10------10------------------------10---8b10v~~~r8--10-10---8-6---------
3|----------------------------------------------------------------7--5h7--
1|-5------5-----------------------------------------------------
2|-8b10r8-6--6---6--6---6------6--------7----7-7----------------
3|-----------5h7----5h7----5h7---7р5-7--9b11-----9-7-------7-9--
4|---------------------------------------------------9-7-9------
2|-7--------------8----8-8----10-8-------8-8-8-8/10^-^-^-
3|-9b10r9-7-------8h10---8h10-10-8h10-8--8-8-8-8/10------
4|----------9--------------------------------------------
Verse:
Danсe: D D# (x8) "С'mon, eee-e ..."
Сhorus:
Intro:




Ваше мнение



Капча