Intro:
Dm Bb Gm A Dm Bb Gm A Dm Bb Gm A Dm Bb Gm A
2|---6---6--------------------------6----------6---8------------8р5--
3|-7---7---7~~~~--------------------7--------7---7---7---------------
4|---------------------------------------------------------7h8--------

Verse1:
Dm Bb Gm A
То ни ливни за окном потешаются с листвой,
То ни ворон прокричал, то беда пришла за мной.
Ой и славно погулял, повдыхал яблонев цвет,
Зо окном уже закат, а любовь ушла в рассвет.

Dm Bb Gm A Dm Bb Gm A
2|---6---6-----------6---8--------------
3|-7---7---7~~~----7---7---7~~~---------

Verse2:
Месяц стонет, звезды пляшут, ясным глазкам не до сна,
Снова вьюга, снова снег, ну а где же здесь весна ?
Поскорей бы улеглось, да забилось в угол прочь,
За онком уже рассвет, а любовь умчалась в ночь.

Dm Bb Gm A Dm Bb Gm A
1|-------------------------------5------------------------
2|---6---6-------6---8-------6---------------8--6-5-6-8~~-
3|-7---7---7~--7---7---7~--7---7---7~---------------------
4|--------------------------------------7h8---------------
А любовь умчалась прочь ...

Bridge:
Gm Bbsus2 F Bbsus2 Сsus2
Не пугайте, ветры, криком, не пугайте, ветры, свистом 1|--1------3--
Сsus2 2|--1------3--
Стайки беленьких берез. 3|--3------5--
Gm Bbsus2 F 4|--3------5--
Принесите, ветры, запах, принесите, ветры, цвет, 5|--1------3--
С 6|--1------3--
Моей любимой волос ...

Сhorus:
Dm G Bb С
Поздно! Далеко где-то ...
Поздно! Далеко кто-то ...
Поздно! Далеко лето ...
Поздно! Далеко где-то ...

Dm Bb Gm A Dm Bb Gm A
2|---6---6-----------6---8---6----------------8~--6-5-6-----
3|-7---7---7~------7---7---7---7~~----------------------7~~-
4|-----------------------------------------7/8--------------

Verse1:
Solo:
Bridge:
Сhorus:
Solo:
Сhorus:




Ваше мнение



Капча

Комментарии

арина
долго загружается это сайт