Ленинград
WWW.LENINGRAD.SPB.RU

Standart tuning eBGDAE

Вступление на трубах:
C Bb C Bb
E|---------------------------------------------------------|
B|---------------------------------------------------------|
G|---------------------------------------------------------|
D|--10-10-10------8-8-8------10-10-10--------------8-------|
A|--10-10-10------8-8-8------10-10-10--------------8-------|
E|--8--8--8-------6-6-6------8--8--8---------------6-------|

Проигрыш:
C
A|----------------------------------------------|
E|--8-8-6-7-8-8-8-6-7-8-8-6-7-8--и т.д.---------|

Куплет:
C G# Bb
A|------------------------------------------------------------------------|
E|--8-8-6-7-8-8-8-6-7-8-4-4-2-3-4-4-4-2-3-4-6-6-4-5-6-6-6-6-4-5-6--и т.д.-|

Припев:
E|---------------------------------------------|
B|---------------------------------------------|
G|---------------------------------------------|
D|--10-10-10--10--8-10--8-8-8--8--8-7----------|
A|--10-10-10--8---6-8---8-8-8--6--6-5----------|
E|--8--8--8-------------6-6-6------------------|

Слова все знают




Ваше мнение



Капча