Intro:
Gm
e|----3-----3-----3-3-3-3-3-3----3-----3-----3-3-3-3-3-3---|
B|----3-----3-----3-3-3-3-3-3----3-----3-----3-3-3-3-3-3---|
G|----3-----3-----3-3-3-3-3-3----3-----3-----3-3-3-3-3-3---|
D----------------------------------------------|
A|-------5--------------------------5----------------------|
E|-3-----------3---------------3----------3----------------|

Cm D
e|----3-----3-----3-3-3-3-3-3----3-----3-----5-5-5-5-5-5---|
B|----3-----3-----3-3-3-3-3-3----4-----3-----7-7-7-7-7-7---|
G|----3-----3-----3-3-3-3-3-3----5-----3-----7-7-7-7-7-7---|
D-----------------------4----------------------|
A|-------5---------------------3----------5----------------|
E|-3-----------3-------------------------------------------|

Gm Cm D
У! А! У! А! У! А! У! А! У! А! У! А! У! А! У! А! (х3)

Gm Cm D
Я мужчина, секс машина, находу стираю шины.
Gm Cm D
Мы же пипл, super-voodoo. Баба есть - я бабу буду!

Припев (вторым голосом звучит интро):
Gm Cm D
Бабу вы-ба-буду, бабу вы-ба-буду, бабу вы-ба-буду,
(У! А! У! А! У! А! У! А! У! А! У! А! У! А! У! А!)
Gm Cm D
Бабу вы-ба-буду, бабу вы-ба-буду, бабу вы-ба-буду.
(У! А! У! А! У! А! У! А! У! А! У! А! У! А! У! А!)

Gm Cm D
У! А! У! А! У! А! У! А! У! А! У! А! У! А! У! А!
Gm Cm D
У! А! У! А! У! А! У! А! У! А! У! А! У! А! У! А!

Если есть вэ кармане сотка - буду я и бабы водку!
Я по жизни не зануда - и бухло, и бабу буду!

Припев.

Бабы - это как конфеты, разверните-ка вот эту!
Бабы есть везде, повсюду. Бабы есть, я бабу буду!

Припев.

Бабу будешь? Бабу буду!

Припев.
G
Бабу-буду-бабу-буду-бабу-буду-буду, баа-буууу.


Ваше мнение



Капча