Am
Я-я-я-я! Пришел сегодня пьяный в жопу
Am
Ты сказала твои нервы скоро лопнут
Dm
Ты сказала,что не можешь со мной
Am
Ты сказала: "Алкоголик больной!"
Dm
Ты сказала : "Ухожу на совсем!"
E E
А мне плевать, уходи. Я агент 007!
Am
Я сегодня пьяный в жопу
Am
Ты сказала твои нервы лопнут
Dm
Ты сказала, что не любишь меня
Am
Ты сказала, я похож на свинья.
Dm
Ты сказала, что уходишь опять
E E
А мне плевать, уходи. У меня есть 0,5 !

´TABULATURA´*:
Intro
Проигрыш:
Riff1 x2
Riff1 x4 + Bridge
Куплет 1:
Riff1 x2
Riff2
Riff1
Riff2
Riff3
Проигрыш:
Riff1 x4 + Bridge
Куплет 2:
Riff1 x2
Riff2
Riff1
Riff2
Riff3
Проигрыш:
Riff1 x4 + Bridge
Riff1 x2
Solo x4
Riff1 x2
Riff1 x4 + Bridge

Intro:
E||---------------------------------------------------||
B||--------------------------5-4----------------------||
G||-----------------------5---------------------------||
D||------2-1----1--5-4--7-----------------------------||
A||-0-3-------3---------------------------------0-6-7-||
E||---------------------------------------------------||
Riff1:
E||---5-5-5-5-5-5-5-5-||
B||---5-5-6-6-7-7-6-6-||
G||---5-5-5-5-5-5-5-5-||
Riff2:
E||---10-10-10-10-10-10-10-10-||
B||---10-10-11-11-12-12-11-11-||
G||---10-10-10-10-10-10-10-10-||

Riff3:
E||-7x--------7-7-7-7-7-7-7--||
B||-9x--------9-9-9-9-9-9-9--||
G||-9x--------9-9-9-9-9-9-9--||
D||-9x--------9-9-9-9-9-9-9--||
A||-7x--------7-7-7-7-7-7-7--||
E||--------------------------||
Bridge:
E||------------------------------------------------------------------------------------------------|
B||-----------------------------------------------------------------------------------------------|
G||------------------------------------------------------------------------------------------------|
D||----------------------------------------------------------------------------------2-1----1--5-4-|
A||-0---222--2---0-0-0-0---333--3---2-2-2-0---222--2---0-0-0-0---333--3---2-2-2-0-3------3--------|
E||------------------------------------------------------------------------------------------------|
|-------------------------------||
|------5(8)-4(7)----------------||
|---5---------------------------||
|-7-----------------------------||
|-------------------------0-6-7-||
|-------------------------------||
Solo:
E||---------------------------||
B||---------------------------||
G||---------------------------||
D||---2^---3^--4^---3^--3^----||
A||-0----0---0----0---0-------||
E||---------------------------||
´TABULATURA BASS´*:
Проигрыш:
Riff1 x6
Куплет 1:
Riff1 x2
Riff2
Riff1
Riff2
Riff3
Проигрыш:
Riff x4
Куплет 2:
Riff1 x2
Riff2
Riff1
Riff2
Riff3
Проигрыш:
Riff1 x6
Solo x2
Riff1 x6

Riff1:
G||---------------------------------||
D||---------------------------------||
A||-0---6-7-0---6-7-0---6-7-0---6-7-||
E||---------------------------------||
Riff2:
G||---------------------------------||
D||-0---6-7-0---6-7-0---6-7-0---6-7-||
A||---------------------------------||
E||---------------------------------||
Solo:
G||---------------------------------||
D||---------------------------------||
A||-0----0----------000----0--------||
E||---------------------------------||




Ваше мнение



Капча