НЕ ВЕРИЛ
На аккустической гитаре вся песня играется на басовых аккордах.
Начало:
D / F / E /D / C / A# / C
E----------------------------------------------------------------
H----------------------------------------------------------------
G----------------------------------------------------------------
D-------7--------10----9----7----5---3---5------------------
A-------5--------8-----7----5----3---1---3-------------------
E----------------------------------------------------------------
D / F / E /D / E / F
E----------------------------------------------------------------
H----------------------------------------------------------------
G----------------------------------------------------------------
D-------7--------10----9----7----9---10---------------------
A-------5--------8-----7----5----7---8----10-8-7-----------
E----------------------------------------------------------------
D__________________________
Не верил я, о как, не верил,
C__________________D____
Что черными станут цветы.
D____________________________
Холодной рукою, рукой слепоты
C____________________D/E/D/F D/E/F/C/D
Судьба закрывает все двери.
D_______________________
В незрячих глазах пелена
C__________________D
Раскинулась черной стеною.
D__________________
Навеки лишила покоя
D________E______
Меня так жестоко,
D________E______
Меня так жестоко,
D________E_______D__
Меня так жестоко она.
D / F / E /D / C / A# / C
E----------------------------------------------------------------
H----------------------------------------------------------------
G----------------------------------------------------------------
D-------7--------10----9----7----5---3---5------------------
A-------5--------8-----7----5----3---1---3-------------------
E----------------------------------------------------------------
D / F / E /D / E / F
E----------------------------------------------------------------
H----------------------------------------------------------------
G----------------------------------------------------------------
D-------7--------10----9----7----9---10---------------------
A-------5--------8-----7----5----7---8----10-8-7-----------
E----------------------------------------------------------------
Припев:
D_____E_________D______
Я это не в силах понять,
A#______AB#_____A_____
Пытаясь увидеть воочую
A#_____AB#____AC#_
Темные краски ночи,
A#____AB#____A__
Яркие краски дня.
A#_____AB#_____AC#
Темные краски ночи,
A#____AB#____A__
Яркие краски дня.
D___________________
Вспышка маячит вдали
C_________________D____
И рвется отшебную нитью,
D___________________________
И больше не сделать открытий,
D_______E__
И лодка моя
D_______E__
И лодка моя
D_______E____D_____
И лодка моя, в пути.
Припев:
D_____E_________D______
Я это не в силах понять,
A#______AB#_____A_____
Пытаясь увидеть воочую
A#_____AB#____AC#_
Темные краски ночи,
A#____AB#____A__
Яркие краски дня.
A#_____AB#_____AC#
Темные краски ночи,
A#____AB#____A__
Яркие краски дня.
D_____E_________D______
Я это не в силах понять,
A#______AB#_____A_____
Пытаясь увидеть воочую
A#_____AB#____AC#_
Темные краски ночи,
A#____AB#____A__
Яркие краски дня.
A#_____AB#_____AC#
Темные краски ночи,
A#____AB#____АС#__
Темные краски ночи,
A#____AB#____A__
Яркие краски дня.




Ваше мнение



Капча