BAND : LARS FREDERIKSEN AND THE BASTARDS
SONG : ANTI-SOCIAL
TABBED BY : QUINCY SLOAN

ANOTHER GREAT SONG FROM THE ALBUM. MORE TO COME.

INTRO/VERSE - weird rhythm, listen to it
E :--------------------
B :--------------------
G :---4---4-4-4--------
D :-3-4-3-4-4-4--------
A :-3-2-3-2-2----------
E :-1---1--------------

FILL - play to lead into verse
E :--------------------------------------
B :--------------------------------------
G :--------------------------------------
D :--------------------------------------
A :---------2--2-2--3-3-3-4-4-4-4--------
E :-1--1-1-------------------------------

CHORUS
E :-------------------------
B :-------------------------
G :-5-5-5-5--3-3-3-3--------
D :-5-5-5-5--3-3-3-3--------
A :-3-3-3-3--1-1-1-1--------
E :-------------------------

EXTRA BIT - play this bit twice, then play bit below once
E :--------------------------------------------------------------------
B :--------------------------------------------------------------------
G :-8-8-8-8---------5-5-5-5----------8-8-8-8---------5-5-5-5-5-5-5-7---
D :-8-8-8-8-8-8-8-8-5-5-5-5-5-5-5-5--8-8-8-8-8-8-8-8-5-5-5-5-5-5-5-7---
A :-6-6-6-6-8-8-8-8-3-3-3-3-5-5-5-5--6-6-6-6-8-8-8-8-3-3-3-3-3-3-3-5---
E :---------6-6-6-6---------3-3-3-3----------6-6-6-6-------------------

E :---------------------------------------------
B :---------------------------------------------
G :-----------------4-4-4-4-4-4-4-4-------------
D :-3-3-3-3-3-3-3-3-4-4-4-4-4-4-4-4-------------
A :-3-3-3-3-3-3-3-3-2-2-2-2-2-2-2-2-------------
E :-1-1-1-1-1-1-1-1-----------------------------




Ваше мнение



Капча