Song: Wind In Your Sail
Artist: Lagwagon
Album: Acrophobe
Tabbed By: Adam Simmons ([email protected])
Key:
> = Strum (play many times)
h = Hammer-On
* = Sustain (let it ring)
Normal (E,A,D,G) Tuning.
Intro
G|---------------| |-----------|
D|-5h7-------5-5-| |-5h7----4>-|
A|-----2-2-2-----|x3|-----5>----|
E|---------------| |-----------|
Verse
G|-------------|
D|----5>-------|
A|-2>----5>-0>-|x4
E|-------------|
Chorus
G|-------------| |-------------------|
D|-------------| |-------------------|
A|----5>-2>----|x2|----5>-3>-2>-------|
E|-3>-------5>-| |-3>----------3>-2>-|
Bridge
G|---------------------|
D|-------5-5-5h7----4>-|
A|-2-2-2---------5>----|
E|---------------------|
*Repeat Verse
*Repeat Chorus
Interlude
G|----------------------| |-----------------------|
D|-------0-2-2-0-0-0-4>-| |--------0-2-2-0-0-0----|
A|-2-2-2----------------|x5|-2-2-2--------------4>-|
E|----------------------| |-----------------------|
*Repeat Verse
*Repeat Chorus
Ending
G|----|
D|----|
A|-2*-|
E|----|




Ваше мнение



Капча