Lagwagon song: RUST
tabbed for bass by Enrico Zampini

Intro:(four times)
When the guitar has faded in
G:--------7------------------------------------------------------
D:---7-10---10-9-----7-7-7--10-10-10-----------------------------
A:-8-------------10----------------------------------------------
E:---------------------------------------------------------------

Main riff (four times)
G:--------7------------------------------------------------------
D:---7-10---10-9----7-7-7-7--10-10-10----------------------------
A:-8-------------10----------------------------------------------
E:---------------------------------------------------------------
Verse 1 (three times)
G:-------------------------7-------------------------------------
D:-7-7-7-7-10-10-10---7-10---10-9--------------------------------
A:------------------8-------------10-----------------------------
E:---------------------------------------------------------------

Verse 2
(three times)
G:------------------------------7--------------------------------
D:-7-7-7-7--10-10-10-------7-10----------------------------------
A:-------------------8-8-8---------------------------------------
E:---------------------------------------------------------------
fourth time
G:------------------------------7--------------------------------
D:-7-7-7-7-------------------------------------------------------
A:----------10-10-10-8-8-8-7-10----------------------------------
E:---------------------------------------------------------------

Bridge to chorus
G:----10-10------9-7---------10-10---9---7-7---10-10-10-10-------
D:----------7-10-----10-9----------7---5-------------------------
A:-8----------------------8--------------------------------------
E:---------------------------------------------------------8-8---
G:-9-9-9-9------5-5-5-5--7--7--7--7-7-7--------------------------
D:---------------------------------------------------------------
A:---------------------------------------------------------------
E:---------0-0---------------------------------------------------
Then verse 1 three times
fourth time:
G:-------------------9-9-9-9-9-9---------------------------------
D:-10-10-10-10-10-10---------------------------------------------
A:---------------------------------------------------------------
E:---------------------------------------------------------------
Again Verse 1 (three times)
Verse 2 four time with variation the fourth time
bridge to chorus one time
then this bridge
G:----10-10------9-7---------10-10---9---7-7---10-10-10-10-------
D:----------7-10-----10-9----------7---5-------------------------
A:-8----------------------8--------------------------------------
E:---------------------------------------------------------8-8---
G:-9-9-9-9------9-9-9-9--14-14-14-16-16-16-----------------------
D:---------------------------------------------------------------
A:---------------------------------------------------------------
E:---------0-0---------------------------------------------------
Verse 1 three time
fourth time
G:-----10---12--------12---14------------------------------------
D:-7-------------10----------------------------------------------
A:---------------------------------------------------------------
E:---------------------------------------------------------------
Outro (both line three times)
G:---------------------------------------------------------------
D:---------------------------------------------------------------
A:----------------3---2-3-5--------------------------------------
E:-1---1-1-1-1-1-------------------------------------------------
G:---------------------------------------------------------------
D:---------------------------------------------------------------
A:-0---0-0-0-0-0------0-3-2--------------------------------------
E:----------------3----------------------------------------------

Fourth time
G:---------------------------------------------------------------------
D:---------------------------------------------------------------------
A:-----------------5--5--5-5-7-7-7-7-7-7-7-7--57--8-8-8-8--10-10-10-10-
E:-1---1-1-1-1-1-----------------------------8-------------------------

G:---------------------------------------------------------------
D:---------------------------------------------------------------
A:-3-3-3-3--7-7-7-7--8-8-8-8--10-10-10-10------------------------
E:---------------------------------------------------------------

G:---------------------------------------------------------------
D:---------------------------------------------------------------
A:-0-0-0-0-----------8-8-8-8--10-10-10-10------------------------
E:----------0-0-0-0----------------------------------------------

G:---------------------------------------------------------------
D:---------------------------------------------------------------
A:-3-3-3-3--7-7-7-7--8-8-8-8--10-10-10-10---0---------------------
E:---------------------------------------------------------------




Ваше мнение



Капча