LAGWAGON - RIFLE
INTRO
G----------------------------- G------------------------------
D----------------------------- D------------------------------
A-5-5-4--3-3-2--1-1-0-----5--- A-5-5-7--8-8-9--10-10-11--12--5
E----------------------3------5 times E------------------------------
once
G-----------------------------
D-----------------------------
A-0-0--0------------------3-2-
E---------1-1--1--1-1--1------
VERSE
G---------------------------------------------------------------------
D---------------------------------------------------------------------
A-0--0--0-------------------------------------0--0--0-----------------
E----------1--1--1--1-1-1--3--3--3---3--3--3----------2--2--2--2--3--3
G-----------------------------------
D-----------------------------------
A--3--3--3--3-----------------------
E-----------------------------------
after the second time through this bit change between the 2nd and 3rd
fret on this string for a while
BASS SOLO BIT
G--------------------------------------------------------------------
D--------------------------------------------------------------------
A------------2--3-3-3--0-2-3--5-5-5--5-3-2---------------------------
E-5-5-5--3-5--------------------------------5-5-5--3-----------------
twice
on the second time dont play the last 6 notes and instead play an A then
an A on the 7th fret.
G--------------------------------------------------------------------
D--------------------------------------------------------------------
A-0-0-0--2--3-3-3--2-3--5-5-5--7-7-7---------------------------------
E--------------------------------------------------------------------
three times
then an A on the 8th fret.
G----------------------------------------------------------------
D----------------------------------------------------------------
A----------------------------------------------------------------
E-1-1-1--0-0-0--1-1-1--0-0-0--1-1-1--2-2-2-----------------------
THATS IT!!
I think thats right cause it works for me but you try it and see how you
go.and i cant take credit for working it out cause my guitar techer
helped me alot
HAVE FUN!!
SAM([email protected])




Ваше мнение



Капча