RAZOR BURN - Lagwagon

PUNK BASS TABS
www.geocities.com/SunsetStrip/Backstage/1711

[email protected]

INTROx2
G]----------------------------------------------------]
D]----------------------------------------------------]
A]-7-7-7/---------7-7-7/--------7-7-7/----------------]
E]--------0-0-0-0--------0-0-0-0-------0>-5-5-9-9-7-7-]

VERSEx2
G]-------------------------------]
D]-------------------------------]
A]-7>----7>----7>----7>----------]
E]----7>----5>----7>----5>-9>-7>-]

CHORUS
G]--------------------------]
D]--------------------------]
A]-------0>-2>-------0----2-]
E]-0>-2>-------0>-2>--------]

INTRO
VERSE

BRIDGE AFTER PAUSE
G]----] [----9>----------]
D]----] [-------7>----7>-]
A]----] [-7>-------9>----]
E]-O>-] [----------------]

OH COME ALL YE.........
G]----------------------------------------------]
D]----------------------------------------------]
A]-7>----7>----7>----7>-12>-7>-12>-7>-12>-14--7-]
E]----7>----5>----7>----------------------------]




Ваше мнение



Капча