-----------------------------------------------------------------------------
NO ONE LIKE YOU - Lagwagon
-----------------------------------------------------------------------------
Tabbed by:
Email:
Intro:
Guitar1:
e|--------------------------------------------------------------------------|
B|--------------------------------------------------------------------------|
G|--------------------------------------------------------------------------|
D|-66-22-44-66-22-44-66-22-44-2~-1~-----------------------------------------|
A|-66-22-44-66-22-44-66-22-44-2~-1~-----------------------------------------|
E|-44-00-22-44-00-22-44-00-22-0~-x~-----------------------------------------|
Guitar2:
e|--------------------------------------------------------------------------|
B|--------------------------------------------------------------------------|
G|--------------------------------------------------------------------------|
D|-66-22-44-66-22-44-66-22-44-2~-1~-----------------------------------------|
A|-66-22-44-66-22-44-66-22-44-2~-1~-----------------------------------------|
E|-44-00-22-44-00-22-44-00-22-0~-x~-----------------------------------------|
Guitar1:
e|--------------------------------------------------------------------------|
B|--------------------------------------------------------------------------|
G|--------------------------------------------------------------------------|
D|-66-22-44-66-22-44-66-22-44-2~-1~-----------------------------------------|
A|-66-22-44-66-22-44-66-22-44-2~-1~-----------------------------------------|
E|-44-00-22-44-00-22-44-00-22-0~-x~-----------------------------------------|
Guitar2:
e|--------------------------------------------------------------------------|
B|--------------------------------------------------------------------------|
G|----------------------------6---------------------------------------------|
D|-6~-6-8-9-8-4-6-1-6-8-9-8-4---6-6-9-8-6-4-2~-1~---------------------------|
A|--------------------------------------------------------------------------|
E|--------------------------------------------------------------------------|
Verse:
Guitar1:
xxx xx xx xxx xx xx xxx xx xx
e|--------------------------------------------------------------------------|
B|--------------------------------------------------------------------------|
G|--------------------------------------------------------------------------|
D|-6-666-22-44-666-22-44-666-22-44-2~-1~------------------------------------|
A|-6-666-22-44-666-22-44-666-22-44-2~-1~------------------------------------|
E|-4-444-00-22-444-00-22-444-00-22-0~-x~------------------------------------|
Guitar2:
xxx xx xx xxx xx xx xxx xx xx
e|--------------------------------------------------------------------------|
B|--------------------------------------------------------------------------|
G|--------------------------------------------------------------------------|
D|-6-666-22-44-666-22-44-666-22-44------------------------------------------|
A|-6-666-22-44-666-22-44-666-22-44-2~-6-------6-4-2-1-----------------------|
E|-4-444-00-22-444-00-22-444-00-22------4-6-7-------------------------------|
Guitar1:
e|--------------------------------------------------------------------------|
B|--------------------------------------------------------------------------|
G|--------------------------------------------------------------------------|
D|-666-222-8-9-666-222-8-9-666-222-8-9-9------------------------------------|
A|-666-222-8-9-666-222-8-9-666-222-8-9-9------------------------------------|
E|-444-000-6-7-444-000-6-7-444-000-6-7-7--11-9-7-6-2-2----------------------|
Guitar2:
e|--------------------------------------------------------------------------|
B|--------------------------------------------------------------------------|
G|--------------------------------------------------------------------------|
D|-666-222-8-9-666-222-8-9-666-222-8-9-9~-----------------------------------|
A|-666-222-8-9-666-222-8-9-666-222-8-9-9~-----------------------------------|
E|-444-000-6-7-444-000-6-7-444-000-6-7-7~-----------------------------------|
Chorus:
Guitar1:
e|--------------------------------------------------------------------------|
B|--------------------------------------------------------------------------|
G|--------------------------------------------------------------------------|
D|-66-22-44-66-22-44-66-22-44-2~-1~-----------------------------------------|
A|-66-22-44-66-22-44-66-22-44-2~-1~-------6-4-2-1---------------------------|
E|-44-00-22-44-00-22-44-00-22-0~-x~-1-2-4-----------------------------------|
Guitar2:
e|--------------------------------------------------------------------------|
B|--------------------------------------------------------------------------|
G|--------------------------------------------------------------------------|
D|-66-22-44-66-22-44-66-22-44-2~-1~-----------------------------------------|
A|-66-22-44-66-22-44-66-22-44-2~-1~-----------------------------------------|
E|-44-00-22-44-00-22-44-00-22-0~-x~-----------------------------------------|
Guitar1:
e|--------------------------------------------------------------------------|
B|--------------------------------------------------------------------------|
G|--------------------------------------------------------------------------|
D|-66-22-44-66-22-44-66-22-44-2~-1~-----------------------------------------|
A|-66-22-44-66-22-44-66-22-44-2~-1~-----------------------------------------|
E|-44-00-22-44-00-22-44-00-22-0~-x~-----------------------------------------|
Guitar2:
e|--------------------------------------------------------------------------|
B|--------------------------------------------------------------------------|
G|--------------------------------------------------------------------------|
D|-66-22-44-66-22-44-66-22-44-2~-1~-----------------------------------------|
A|-66-22-44-66-22-44-66-22-44-2~-1~-----------------------------------------|
E|-44-00-22-44-00-22-44-00-22-0~-x~-----------------------------------------|
Verse2:
Guitar1:
xxx xx xx xxx xx xx xxx xx xx
e|--------------------------------------------------------------------------|
B|--------------------------------------------------------------------------|
G|--------------------------------------------------------------------------|
D|-6-666-22-44-666-22-----666-22-----2~-1~--------------------------------|
A|-6-666-22-44-666-22-1-2-666-22-1-2-2~-1~--------------------------------|
E|-4-444-00-22-444-00-----444-00-----0~-x~--------------------------------|
Guitar2:
xxx xx xx xxx xx xx xxx xx xx
e|--------------------------------------------------------------------------|
B|--------------------------------------------------------------------------|
G|--------------------------------------------------------------------------|
D|-6-666-22-44-666-22-44--666-22--44----------------------------------------|
A|-6-666-22-44-666-22-44--666-22--44-2~-6-------6-4-2-1---------------------|
E|-4-444-00-22-444-00-22--444-00--22------4-6-7-----------------------------|
Guitar1:
e|--------------------------------------------------------------------------|
B|--------------------------------------------------------------------------|
G|--------------------------------------------------------------------------|
D|-666-642-8-9-666-642-8-9-666-642-8-9-9------------------------------------|
A|-666-642-8-9-666-642-8-9-666-642-8-9-9------------------------------------|
E|-444-420-6-7-444-420-6-7-444-420-6-7-7--11-9-7-6-2-2----------------------|
Guitar2:
e|--------------------------------------------------------------------------|
B|--------------------------------------------------------------------------|
G|--------------------------------------------------------------------------|
D|-666-642-8-9-666-642-8-9-666-642-8-9-9~-----------------------------------|
A|-666-642-8-9-666-642-8-9-666-642-8-9-9~-----------------------------------|
E|-444-420-6-7-444-420-6-7-444-420-6-7-7~-----------------------------------|
Chorus:
Guitar1:
e|--------------------------------------------------------------------------|
B|--------------------------------------------------------------------------|
G|--------------------------------------------------------------------------|
D|-66-22-44-66-22-44-66-22-44-2~-1~-----------------------------------------|
A|-66-22-44-66-22-44-66-22-44-2~-1~-------6-4-2-1---------------------------|
E|-44-00-22-44-00-22-44-00-22-0~-x~-1-2-4-----------------------------------|
Guitar2:
e|--------------------------------------------------------------------------|
B|--------------------------------------------------------------------------|
G|--------------------------------------------------------------------------|
D|-66-22-44-66-22-44-66-22-44-2~-1~-----------------------------------------|
A|-66-22-44-66-22-44-66-22-44-2~-1~-----------------------------------------|
E|-44-00-22-44-00-22-44-00-22-0~-x~-----------------------------------------|
Guitar1:
e|--------------------------------------------------------------------------|
B|--------------------------------------------------------------------------|
G|--------------------------------------------------------------------------|
D|-66-22-44-66-22-44-66-22-44-2~-1~-----------------------------------------|
A|-66-22-44-66-22-44-66-22-44-2~-1~-----------------------------------------|
E|-44-00-22-44-00-22-44-00-22-0~-x~-----------------------------------------|
Guitar2:
e|--------------------------------------------------------------------------|
B|-9~-5~-7~-9~-5~-7~-9~-5~-7~-5~-4~-----------------------------------------|
G|--------------------------------------------------------------------------|
D|--------------------------------------------------------------------------|
A|--------------------------------------------------------------------------|
E|--------------------------------------------------------------------------|
Outro:
Guitar1:
e|--------------------------------------------------------------------------|
B|--------------------------------------------------------------------------|
G|--------------------------------------------------------------------------|
D|-66-22-44-66-22-44-66-22-44-2~-1~-----------------------------------------|
A|-66-22-44-66-22-44-66-22-44-2~-1~-----------------------------------------|
E|-44-00-22-44-00-22-44-00-22-0~-x~-----------------------------------------|
| / slide up
| slide down
| h hammer-on
| p pull-off
| ~ vibrato
| + harmonic




Ваше мнение



Капча