Lagwagon - no conviction
album: let's talk about leftovers
tabbed by: nazz_desperation

intro/outro
G|----------------------------------------------------------|
D|----12------12-12----10------10-109---8-----8-8----------|
A|----------------------------------------------------------|
D|-12------12-------10------10---------8-----8------6---/18-|

riff 1.
G|-----------------------------------------------------------------|
D|-----------------------------------------------------------------|
A|-5-5-5-5-5-5-5-5-3-3-3-3-3-3-3-3-1-1-1-1-1-1-1-1-----------------|
D|-------------------------------------------------6---6---6---6---|

riff 2. variation
G|---------------------------------| |---------------------------------|
D|---------------------------------| |---------------------------------|
A|---------1-0-------------1-0-----| |-5-5-5-5-5-5-5-5-6-6-6-6-6-6-6-6-|
D|-0-0-0-0-----3-2-1-1-1-1-----3-1-| |---------------------------------|

riff 3. you kick in after bass solo with:
G|---------------------------------| |---------|
D|---------------------------------| |---------|
A|-5---5---5---5-------0-1---1---1-| |-----0-1-|
D|-----------------2-3-------------| |-2-3-----|

bass solo's (figure out the rithem yourself)

1.
A|-------------0-1-5-5-5-5-3-0-|




Ваше мнение



Капча