MOVE THE CAR - Lagwagon
[email protected] >MEANS STRUM
INTROx17
g]---------9-]
d]---6-7-9---]
a]-7---------]
e]-----------]
PART A
g]-----------------------]
d]----11-9-8----9-8------]
a]-----------11-----11-9-]
e]-9>--------------------]
VERSE (same as intro)
PRE-CHORUS
g]-----------------]
d]-11>-------------]
a]------9--12---14-]
e]-----------------]
g]------------------------------------------------------]
d]------------------------------------------------------]
a]-7>----------7>----------7>----------7>-6-4>----------]
e]----7>-5>-7>----7>-5>-7>----7>-5>-7>---------7-5>-4-7-]
VERSE
PART A
PRE-CHORUS
CHORUS
BRIDGE A
g]-------------]
d]-------------]
a]-4>----------]
e]----4>-5>-7>-]
BRIDGE B
g]-------------]
d]-------------]
a]-7>----4>----]
e]----4>----5>-]
VERSE
PRE-CHORUS
CHORUS
INTRO




Ваше мнение



Капча