LAGWAGON - MAY 16
INTRO:
1st riff
|------------------------------------------|
|------------------------------------------|
|-9-7-6-7----9-7-6-7----9-7-6-7----7-6-4-2-|
|-0-0-0-0----0-0-0-0----0-0-0-0----0-0-0-0-|
|------------------------------------------|
|------------------------------------------|
2nd riff
|------------------------------------------------------|
|------------------------------------------------------|
|-9-7-6-7-7-7-6-6-6-7-7-7-7--9-7-6-7-7-7-6-6-6-7-7-7-7-|
|-0-0-0-0-0-0-0-0-0-0-0-0-0--0-0-0-0-0-0-0-0-0-0-0-0-0-|
|------------------------------------------------------|
|------------------------------------------------------|
|----------------------------------------------------|
|----------------------------------------------------|
|-9-7-6-7-7-7-6-6-6-7-7-7-7--7-6-4-2-2-2-7-7-7-6-6-6-|
|-0-0-0-0-0-0-0-0-0-0-0-0-0--0-0-0-0-0-0-0-0-0-0-0-0-|
|----------------------------------------------------|
|----------------------------------------------------|
3rd riff
|----------------------------------------------------|
|----------------------------------------------------|
|---------7--------9-----11--------11-----12-11-9----|
|--[7][7]---[7][7]---[7]----[7][7]----[7]---------12-|
|----------------------------------------------------|
|----------------------------------------------------|
VERSE:
|-------------------------------------------------|
|-------------------------------------------------|
|-7--4--7-----4-7-6--------7-7-------4--7-6-------|
|-7--4--7--4---------5--7--7----7-7--4-------5--7-|
|-5--2--5--4--2-5-4--5--7--5-5--7----2--5-4--5--7-| (strum each power chord a lot and the octaves
|----------2---------3--5-------5-5----------3--5-| once, listen for rhythym)
CHORUS:
|----------------------------------------------|
|----------------------------------------------|
|-7-6--9-9-9-11-9--------9-9-9-11-9---7-9-11-9-|
|-7-6---------------9-7------------------------|
|-5-4--7-7-7-9-7----9-7--7-7-7--9-7---5-7--9-7-|
|-------------------7-5------------------------|
INTERLUDE:
|-----------------------------------------|------------|---------|
|-----------------------------------------|------------|---------|
|---------7--------9-----11--------11-----|-12-11-9----|-9-7-6---|
|--[7][7]---[7][7]---[7]----[7][7]----[7]-|---------12-|-------9-|
|-----------------------------------------|------------|---------|
|-----------------------------------------|------------|---------|
VERSE
CHORUS
BRIDGE: 2nd guitar plays this
|-----------------------------------------------| |--------------------|
|-----------------------------------------------| |--------------------|
|-7-7-7-7-7-------------------------------------| |-777777777777777777-|
|-7-7-7-7-7---7-7-7-7-7---5-5-5-5-5---7-7-7-7-7-| |--------------------|
|-5-5-5-5-5---7-7-7-7-7---5-5-5-5-5---7-7-7-7-7-| |--------------------|
|-------------5-5-5-5-5---3-3-3-3-3---5-5-5-5-5-| |--------------------|

SOLO:
|---------------------------------------------------------------------------|
|--------------5--------------------7------------------------5-------7------|
|-----4-6-7~-----7-6-7~---6~--4-------7-4--2-4-6-3-4-6-7-6-4---7-6-7---7/9~-|
|-7~----------------------------7~------------------------------------------|
|---------------------------------------------------------------------------|
|---------------------------------------------------------------------------|
OUTRO:
|-------------------------------------------------------------------------|
|-------------------------------------------------------------------------|
|---------7--------9-----11--------11-----12-11-9------------7--------9-7-|
|--[7][7]---[7][7]---[7]----[7][7]----[7]---------12--[7][7]---[7][7]-----|
|-------------------------------------------------------------------------|
|-------------------------------------------------------------------------|




Ваше мнение



Капча