Intro:
|--------------------------------------------------|
|--------------------------------------------------|
|-9-7-6-7-----9-7-6-7-----9-7-6-7-----7-6-4-2------|
|-0-0-0-0-----0-0-0-0-----0-0-0-0-----0-0-0-0------|
|--------------------------------------------------|
|--------------------------------------------------|
|---------------------------|-------------------------|
|---------------------------|-------------------------|
|-9-7-6-7-7-7-6-6-6-7-7-7-7-|-7-6-4-2-2-2-7-7-7-6-6-6-|
|-0-0-0-0-0-0-0-0-0-0-0-0-0-|-0-0-0-0-0-0-0-0-0-0-0-0-|
|---------------------------|-------------------------|
|---------x3----------------|----------x1-------------|x2
Riff: (PM all notes on D string)
|-------------------------------------|
|----------------7---7------8p7-------|
|-----7----9--------------------9h7---|
|-7-7---7----7-7---7---7-7------------|
|-------------------------------------|
|-------------------------------------|
D A B
No more waiting on them,
D A F#
As you rise inside new rooms,
D C# G
It's official you've gone,
A
You can live for no one,
D A B
Else man, the guilt must be huge
D C# G
There's no gain in failure,
A D
You succeed at being mine,
A B
Yeah, old friend, see you there
D A
I will be proud from afar,
D C# G
I can paint a picture
A
In a moment of
D A B
Memories and there aren??t many left,
D C# G
I am extradited,
A
Uninvited
Chorus: (It??s just another Saturday??)
|-------------------------------------------------------|
|-------------------------------------------------------|
|-7--7--9-9-9-11--9---------9-9-9-11-9---7-9-11-9-------|
|-7--7??-x-x-x--x--x---9--9??-x-x-x??-x??x---x-x--x-x---|
|-5--5--7-7-7--9--7---9--9--7-7-7--9-7---5-7--9-7-------|
|---------------------7--7------------------------------|x2
Riff: (PM all notes on D string)
|-------------------------------------|
|----------------7---7------8p7-------|
|-----7----9--------------------9h7---|
|-7-7---7----7-7---7---7-7------------|
|-------------------------------------|
|-------------------------------------|x2
D A B
Take a step to freedom,
D A F#
You and her loathing this cruel world,
D C# G A
Take a breath of shelter and exhale,
D B
Trust and allegiance
G A D D
Liberate yourself from hell
Chorus: (it??s just another Saturday??)
|----------------------x3-------------------------------|
|-------------------------------------------------------|
|-7--7--9-9-9-11--9---------9-9-9-11-9---7-9-11-9-------|
|-7--7??-x-x-x--x--x---9--9??-x-x-x??-x??x---x-x--x-x---|
|-5--5--7-7-7--9--7---9--9--7-7-7--9-7---5-7--9-7-------|
|---------------------7--7------------------------------|x2
|------------------------------------------|----x3-----|---------|
|------------------------------------------|-----------|---------|
|-7--7--9-9-9-11--9--------9-9-9-11-9--7-9-|-11-9-7-6--|-7-------|
|-7--7??-x-x-x--x--x--9--9??-x-x-x??-x??x--x-x-|--x-x-x-x--|-x---|
|-5--5--7-7-7--9--7--9--9--7-7-7--9-7--5-7-|--9-7-5-4??-|-5------|
|--------------------7--7------------------|-----------|---------|
Pause
Bridge:
Guitar 1
|-----------------|
|-----------------|
|-7-7-7etc--------|
|-----------------|
|-----------------|
|-----------------|
Guitar 2
|---------------------------------|
|---------------------------------|
|---------------------------------|
|-7-7-7-7-7-----------------------|
|-5-5-5-5-5--5-5-5-5-5--7-7-7-7-7-|
|------------3-3-3-3-3--5-5-5-5-5-|
Solo:
|----|---------|----------|----|------|
|----|---------|----------|----|------|
|----|----6-7~-|-9-7-6h7~-|-6~-|------|
|-7~-|7-9------|----------|----|-9-7~-|
|----|---------|----------|----|------|
|----|---------|----------|----|------|
|------------------------------------------|
|---7---------------------------------7----|
|-----7-------6-----6-7-6---9-7-6-6-7---9~-|
|-7-----9-7-9---8-9-------9----------------|
|------------------------------------------|
|------------------------------------------|
Outro: (PM all notes on D string)
|-----------------------------------|-------------------|
|----------------7---7------8p7-----|-------------------|
|-----7----9--------------------9h7-|-----7----9-----7--|
|-7-7---7----7-7---7---7-7----------|-7-7---7----7-7----|
|-----------------------------------|-------------------|
|-----------------------------------|-------------------|




Ваше мнение



Капча