-----------------------------------------------------------------------------
MAKING FRIENDS LAGWAGON
-----------------------------------------------------------------------------

[email protected] > MEANS STRUM

VERSE
G]-------------------------------------------------------------------]
D]-------------------------------------------------------------------]
A]----------------4-4-4-5>--------------------------4-4-4-5>----5>---]
E]-5>-0>-2>-5-5-5----------5>-0>-0-4-5>-0>-2>-5-5-5----------5>----0-]

CHORUS
G]-------------]
D]-------------]
A]----5>-------]
E]-2>----5>-0>-]

BRIDGE
G]---------------------------------------------------------------------
D]---------------------------------------------------------------------
A]-------------11-11-12-12-------------12-12-14-14---------11-11-12-12-
E]-10-10-10-10-------------12-12-12-12-------------9-9-9-9-------------

----------------------------------------------------]
----------------------------------------------------]
-------------11-11-12-12-------------11-11-12-12----]
-10-10-10-10-------------10-10-10-10-------------12-]

1/2 of VERSE OVER SOLO
VERSE
CHORUS

MAKING FRIENDSx2

G]----------------]
D]----------------]
A]-------5>-------]
E]-0>-5>---0>-4-2-]

IT'S SO SMALLx2
G]-------------13-13-14-14-------------14-14-16-16-------------13-13-14-14-
D]-12-12-12-12-------------14-14-14-14-------------11-11-11-11-------------
A]-------------------------------------------------------------------------
E]-------------------------------------------------------------------------

G]-------------13-13-14-14-]
D]-12-12-12-12-------------]
A]-------------------------]
E]-------------------------]

OUTRO
G]-------------]
D]-------------]
A]-5-----------]
E]-----0-----5-]




Ваше мнение



Капча