KID'S DON'T LIKE TO SHARE - Lagwagon
[email protected] > MEANS STRUM
INTRO
G]---------------------------------------------]
D]-------------------------7-6-4-7-7-7-7-6-4-2-]
A]-7-7-7-7-7-7-4-4-4-2-2-2-5-4-2-5-5-5-5-4-2-0-]
E]-5-4-5-4-5-4-2-2-2-0-0-0---------------------]
VERSE1
G]----------------------------------------------------------]
D]------------------------------6-7-------------------------]
A]----2>-4-5>-------2>-4-5>-7-7-----7-712-------2>-4-5>-7>-]
E]-2>---------5>-2>------------------------5>-2>------------]
CHORUSx4 END OF CHORUS
G]-------------------] [----]
D]-------------------] [----]
A]----4>-------5>-2>-] [----]
E]-5>----2>-5>-------] [-5>-]
VERSE2
G]---------------]
D]---------------]
A]-------2>-4-5>-]
E]-5>-2>---------]
BRIDGEx2 END OF BRIDGE
G]-------------] [----------]
D]-------------] [----------]
A]-------2>-5>-] [----------]
E]-5>-2>-------] [-5>-2>-0>-]
AND JESUS CHRIST IS....
G]--------------------]
D]--------------------]
A]-5----------------2-]
E]------5-----2-------]
END OF BRIDGE AGAIN
THEN THIS
G]-----------------------]
D]-----------------------]
A]-5--------------2---7>-]
E]------5----2-----------]
CHORUSx4
VERSE2




Ваше мнение



Капча