This song is kewl and Lagwagon is an old band but I will tab this sog anyway.E-mail me with any corrections. [email protected]
-----------------------------------------
-----------------------------------------
-----------------------------------------
----------0--2----1---0------------------
--0--2--3------3----2---3----------------
-----------------------------------------

-----------------------------------------
-----------------------------------------
-----------------2--1--------------------
----------0--2---------------------------
--0--2--3--------------------------------
-----------------------------------------

-----------------------------------------
-----------------------------------------
-----------------------------------------
----------0--2----1---0------------------
--0--2--3------3----2---3----------------
-----------------------------------------

-----------------------------------------
-----------------------------------------
--2--1--0-----------2------------------------
-----------4--3---2-------------------------
-----------------------------------------
-----------------------------------------
-----------------------------------------
-----------------------------------------
-----------------------------------------
----------0--2----1---0------------------
--0--2--3------3----2---3----------------
-----------------------------------------
-----------------------------------------
-----------------------------------------
-----------------2--1--------------------
----------0--2---------------------------
--0--2--3--------------------------------
-----------------------------------------
-----------------------------------------
-----------------------------------------
-----------------------------------------
----------0--2----1---0------------------
--0--2--3------3----2---3----------------
-----------------------------------------
Then the bass goes
---------------------
---------------------
---------------------
--5--4--3--2---1-----
Then guitar goes
----------------------
----------------------
-----2----------------
--2--2----------------
--2--0----------------
--0-------------------




Ваше мнение



Капча