I Must be hateful [email protected]
Lagwagon ([email protected])
Blaze

Main Riff (part 1)
e|----------------|
b|----------------|
g|----------------|
d|----------------|
a|----6-----4---7-|
E|--7----7--------|

Main Riff (part 2)
e|-------------------|
b|-------------------|
g|-------------------|
d|-------------------|
a|----1----4-2-1-2---|
E|--2---2------------|


Main Riff (part 3)

e|-----------|
b|-----------|
g|-------9---|
d|---6---9---|
a|---6---7---|
E|---4-------|

This is the Chorus

e|---------------------------------------|
b|---------------------------------------|
g|---------------------8-------9-------11|
d|---9-9/4-----9-9/4---8---6---7---9---11|
a|---9-9/4-----9-9/4---6---6---7---7---9-|
E|---7-7/2-----9-7/2-------4-------7-----|

e|--------------------------------|
b|--------------------------------|
g|------------8-------9-------11--|
d|---9-9/4----8---6---7---9---11--|
a|---9-9/4----6---6---7---7---9---|
E|---7-7/2--------4-------7-------|

e|----------------------------------------------------|
b|----------------------------------------------------|
g|---------------------------8--9--11--------------9--|
d|---2--4--9--4-----2--4--9--8--9--11--9--4--6--9--9--|
a|---2--4--9--4-----2--4--9--6--7--9---9--4--6--9--7--|
E|---0--2--7--2-----0--2--7------------7--2--4--7-----|




Ваше мнение



Капча