Song: Gun In Your Hand
Band: Lagwagon
Album: Let's Talk About Feelings
tabbed by: Olya: [email protected], icq: 20316789
*=play heaps
Intro
G:-----------
D:-420-------
A:-----22-00-
E:-----------
Verse (Riff 1)
G:---------------------------------------------------------------
D:---------------------------------------------------------------
A:------------------0*-------------------------------------------
E:-3*------------------------------------------------------------
G:---------------------------------------------------------------
D:---------------------------------------------------------------
A:--------------0*-----------------------------------------------
E:-3*------------------------------------------------------------
G:---------------------------------------------------------------
D:---------------------------------------------------------------
A:-----------------0*--------------------------------------------
E:-3*------------------------------------------------------------
G:---------------------------------------------------------------
D:---0*----------------------------------------------------------
A:---------------------2*----------------------------------------
E:---------------------------------------------------------------
Verse 2 (Riff 1)
Chorus thingy (Riff 2)
G:---------------------------------------------------------------
D:---------------------------------------------------------------
A:------------------0*-----------------2*------------------------
E:-3*------------------------------------------------------------
G:---------------------------------------------------------------
D:-------------------0*--------------------2*--------------------
A:---------------------------------------------------------------
E:---------------------------------------------------------------
G:---------------------------------------------------------------
D:---------------------------------------------------------------
A:-3*-----------------------------------------0-------------------
E:---------------------------------------------------------------
Verse 3 (Riff 1)
Chorus thingy (Riff 2)
Ending (Riff 3)
G:---------------------------------------------------------------
D:---------------------420---------------------420----------210--
A:-------00000-0000-22-----------00000-0000-22-----------00------
E:-33333-------------------33333-------------------33333---------
G:---------------------------------------------------------------
D:----------420-22222--------------------------------------------
A:-00000-22-----------33333-0000000000000000---------------------
E:---------------------------------------------------------------
G:---------------------------------------------------------------
D:-0*------------------------------------------------------------
A:---------------------------------------------------------------
E:------------------------------------2*-------------------------
G:---------------------------------------------------------------
D:------------------------------------0---0--------0-0-----------
A:----------------------------0---0------------------------------
E:-------3*------------------------------------3-3---------------
G:---------------------------------------------------------------
D:-0*------------------------------------------------------------
A:---------------------------------------------------------------
E:-------------------------------------2*------------------------
G:---------------------------------------------------------------
D:--------------------------------------0--0---------------------
A:----------------------------0----0-----------------------------
E:-------3*-------------------------------------3-3-3-3----------
G:---------------------------------------------------------------
D:-----------------0-0-0-0-------------------------4-4-4-4-------
A:-0-0-0-0-2-2-2-2-----------------0-0-0-0-2-2-2-2---------------
E:-------------------------3-3-3-3-------------------------------
G:---------------------------------------------------------------
D:-------------------------0-0-0-0-2-2-2-2-----------------------
A:---------0-0-0-0-2-2-2-2-----------------2-2-2-2-0-0-0-0-------
E:-3-3-3-3-------------------------------------------------------
G:---------------------------------------------------------------
D:---------------------------------------------------------------
A:-0-0-0-0-0-0-0-2--2*-------------------2*----------------------
E:---------------------------------------------------------------
G:---------------------------------------------------------------
D:---------------------------2-2-2-2-----------------------------
A:------------0--0-0-0-0-0-2---------3-3-3-3-3-3-3---------------
E:---------------------------------------------------------------
That's all.
oly




Ваше мнение



Капча