Lagwagon - Give it back
Transcribed by Fredrik Dahlberg
Email: [email protected]
Intro:
--------14--------------12------------------14--------------17------
----14----14--------14------14----------14----14--------14----14----
12----------12--15--------------15--12----------12--15----------15--
--------------------------------------------------------------------
Last time:
14/17--16--14----------
-------------1714------
-----------------------
-----------------------
Verse:
(2 times)
----------------------------------------------------------------
----------------------------------------------------------------
0---0---0---0-3-----3---3---3---5---5---5-5-----------------3---
----------------------------------------------1-----1-1-1-1-----
----------------------------------------------------------------
----------------------------------------------------------------
0---0---0---0-3-----3---3---3-------------------------------3---
--------------------------------3---3---3-3---1-----1-1-1-1-----
...you hate them...
----------------------------------------------------------------
----------------------------------------------------------------
0---0---0---0-3-----3---3---3---0---0---0---0-------------------
----------------------------------------------1-----1---1---1-1-
----------------------------------------------------------------
----------------------------------------------------------------
0---0---0---0-3-----3---3---3---0---0---0---0-8-----8---8---8-8-
----------------------------------------------------------------

The Riff:
----------------------------------------------------------------
--------------5---0-2-0-----------------------------------------
0---3-0-5-6-7-----------3-0---0-----0---x-x-x-0-----0---0-------
----------------------------3-----------------------------3-----
----------------------0-7-8-9-----------------------------------
--------------5-----7-------------------------------------------
0---3-0-5-6-7-----7-----------0-----0---x-x-x-0-----0---0-------
----------------------------------------------------------3-----
(2 times)
------------------------------------------------------0-7-8-9---
--------------5---0-2-0-----------------------5-----7-----------
0---3-0-5-6-7-----------3-0---0---0-3-0-5-6-7-----7-------------
----------------------------3-----------------------------------
Bass solo:
-9---8-7-5-7-5---5---------------
---------------7-----7-5---5-6-7-
-------------------------7-------
---------------------------------
Verse part 1:
------------------------------------------------------------------
------------------------------------------------------------------
0---2-3-2-3-2p0-----2-3-2-3-2p0-----2-3-2-3-2p0---5---5---7---7---
----------------1---------------3---------------------------------
--------------------------------------------------------------------
--------------------------------------------------2---3-0-2-0-------
0---2-3-2-3-2p0-----2-3-2-3-2p0-----2-3-2-3-2p0---------------3-0---
----------------1---------------3-----------------------------------
Verse part 2 (Don't play the 3 last notes when break)
------------------------------------------------------------------
------------------------------------------------------------------
0---2-3-2-3-2p0-----2-3-2-3-2p0-----2-3-2-3-2p0---5---5---7---7---
----------------1---------------3---------------------------------

--------------------------------------------------5---------------
--------------------------------------------------------5----7----
0---2-3-2-3-2p0-----2-3-2-3-2p0-----2-3-2-3-2p0-------------------
----------------1---------------3---------------------------------

Chorus:
-------------------------------------------------------10---9---
----7---7-7-7-7-----7--10-910-----------------------------------
--------------------------------8---8---8-8-8-8-----8-----------
----------------------------------------------------------------
------------------------------------------------------------------------
------------10--------12-12-12-12-12--------------------5---0-2-0-------
-10---10-10------10------------------10---0---3-0-5-6-7-----------3-0---
----------------------------------------------------------------------3-
----------------------------------------------------------------
------------------------------910--10--10101010----10---9-------
----0---0-0-0-0-----0--121012------------------------------10---
----------------------------------------------------------------
----------------------------------------------------------------
---------------------------------10-910-9----------------10-----
-10---10-10-10-10-10-10-10---12----------12------10-------------
----------------------------------------------------------------

Break same as intro
...you hate em part... (some small changes from first time I think)
End with the riff.
Thats the whole bassline for what I think is the best Lagwagon song.
If you find any errors then please mail me and perhaps we can figure
out some improvements. I really aren't that good at transcribing songs
so theres probably some rhytmical errors, but I think you can figure
the rhythmes out by listen to the tune...
Email: [email protected]




Ваше мнение



Капча