Lagwagon - Dis'chords
Transcribed by Fredrik Dahlberg
Email: [email protected]

Intro/ref
-9---9---9---9---9---9---9---9----------------------------------
----------------------------------------------------------------
---------------------------------7---7---7---7---7---7---7---7--
----------------------------------------------------------------

----------------------------------------------------------------
-10--10--10--10--10--10--10--10---------------------------------
----------------------------------------------------------------
---------------------------------8---8---8---8---8---8---8---8--
Last time in intro before the riff
----------------------------------------------------------------
-10--10--10--10--10--10--10--10--12--12--12--12--12--12--12--12-
----------------------------------------------------------------
----------------------------------------------------------------
The riff
--------------------------------------------------------5-------
------------------------------------------5-----------------7---
--------------------------------------7-------------7-----------
----5-------5-------5-------5---8-5-----------------------------
--------------------------------------------------------5-------
------------------------------------------5-----------------7---
--------------------------------------7-------------7-----------
----7-------7-------7-------7---8-5-----------------------------
--------------------------------------------------------5-------
----4-------4-------4-------4-------------5-----------------7---
--------------------------------------7-------------7-----------
--------------------------------8-5-----------------------------
-----------------------------------------------------------------
-----------------5---5-------5-----------------------------------
-3---3-------3-------------------3---3-------3---2---2-------2---
-----------------------------------------------------------------
--------------------------------------------------------5---7---
------------------------------------------5---------------------
--------------------------------------7-------------7-----------
----5-------5-------5-------5---8-5-----------------------------
--------------------------------------------------------5-------
------------------------------------------5-----------------7---
--------------------------------------7-------------7-----------
----7-------7-------7-------7---8-5-----------------------------
--------------------------------------------------------5-------
----4-------4-------4-------4-------------5-----------------7---
--------------------------------------7-------------7-----------
--------------------------------8-5-----------------------------

Repeat this part at the end of the song
-----------------------------------------------------------------
-----------------5---5-------5-----------------------------------
-3---3-------3-------------------3---3-------3---2---2-------2---
-----------------------------------------------------------------
Verse
-----------------------------------------------------------------
-7---7-------7---7---7-------7---7---7-------7---7---7-------7---
-----------------------------------------------------------------
-----------------------------------------------------------------
-7---7-------7---7---7-------7---7---7-------7---7---7-------7--
----------------------------------------------------------------
----------------------------------------------------------------
----------------------------------------------------------------
5---5-------5---5---5-------5---5---5-------5---5---5-------5---
----------------------------------------------------------------
----------------------------------------------------------------
----------------------------------------------------------------
-9---9-------9---9---9-------9---9---9-------9---9---9------9---
----------------------------------------------------------------
----------------------------------------------------------------
----------------------------------------------------------------
------------------------------------------------------------
----7-------7---7---7-------7------10------10--10-------9---
-------------------------------10---------------------------
------------------------------------------------------------
-----------------------------------------------------------------
-7---7-------7---7---7-------7---7---7-------7---7---7-------7---
-----------------------------------------------------------------
-----------------------------------------------------------------
-7---7-------7---7---7-------7---7---7-------7---7---7-------7--
----------------------------------------------------------------
----------------------------------------------------------------
----------------------------------------------------------------
5---5-------5---5---5-------5---5---5-------5---5---5-------5---
----------------------------------------------------------------
----------------------------------------------------------------
----------------------------------------------------------------
-9---9-------9---9---9-------9---9---9-------9---9---9------9---
----------------------------------------------------------------
----------------------------------------------------------------
----------------------------------------------------------------

---------------------------------7---7-------7------------------
-7---7-------7---5---5-------5-------------------5---5-------5--
----------------------------------------------------------------
----------------------------------------------------------------

Outro
----------------------------------------------------------------
--------------------------7------------------------------10--9--
-8-------8-------8-----------10--10--10------10------10---------
----------------------------------------------------------------

----------------------------------------------------------------
-7-------7---7---7---7---7---7----------------------------------
---------------------------------7-------7---7---7---7---7---7--
----------------------------------------------------------------
----------------------------------------------------------------
----------------------------------------------------------------
-8---8-8-----8---8---8-8-----8---8---8-8-----8---8---8-8-----8--
----------------------------------------------------------------
----------------------------------------------------------------
----------------------------------------------------------------
10--1010----10--10--1010----10--10--1010----10--10--1010----10--
----------------------------------------------------------------
It's a bit difficult to figure everything out in this song, but
I think it's not far from the truth. I have a bit of a problem to
hear in which octave every part is played, but I think I got
it right. The transcribtion is perhaps a bit messy, but everything
is there.
Enjoy!
Mail: [email protected]




Ваше мнение



Капча