-------------------------------------------------------------------------------
Bury the Hatchet - LagWagon
-------------------------------------------------------------------------------
Tabbed by: suB_zEr-0
Email:[email protected]
Tuning: E A D G B E
[Intro]
e|---------------------------------------------------------------------------|
B|---------------------------------------------------------------------------|
G|-6--11-9--------11-9------11----6------------------------------------------|
D|-6--11-9--9-----11-9--7---11-9--6------------------------------------------|
A|-4--9--7--9-----9--7--7---9--9--4------------------------------------------|
E|----------7-----------5------7---------------------------------------------|
e|---------------------------------------------------------------------------|
B|---------------------------------------------------------------------------|
G|----------------------------------4-4--4-----------------------------------|
D|-----2h4p2---5p4p2-4------2h4p2---4-4--4--5---4----------------------------|
A|---2-------2------------2---------2-2--2--5---4----------------------------|
E|-0--------------------0-------------------3---2----------------------------|

| / slide up
| slide down
| h hammer-on
| p pull-off
| ~ vibrato
| + harmonic
| x Mute note
===============================================================================




Ваше мнение



Капча