BEER GOGGLES - Lagwagon
By:Peter Lindholm
Intro:
e |-----------------|-----------------|
B |-----------------|-----------------|
G |-----------------|-----------------|
D |-----9-------5---|-----7-------5---|
A |---7---7---7---7-|---5---5---7---7-|
E |-0-------0-------|-0-------0-------|
| |
| |
e |-----------------|-----------------|
B |-----------------|-----------------|
G |-----------------|-----------------|
D |-9-9-9-9-4-4-4-4-|-5-5-5-5---------|
A |-7-7-7-7-2-2-2-2-|-3-3-3-3-5-5-5-5-|
E |-----------------|---------3-3-3-3-|
e |----------|---------|----------|---------|
B |----------|---------|----------|---------|
G |----------|---------|----------|---------|
D |----------|---------|----------|---------|
A |-2------2-|-2-------|-2------2-|-2-2-2-2-|
E |-0------0-|-0-------|-0------0-|-0-0-0-0-|
e |------------|---------------|
B |------------|---------------|
G |------------|---------------|
D |-9----4-5-7-|-(7)-----------|
A |-7----2-3-5-|-(5)----5-5-4--|
E |------------|--------3-3-2--|
Verse:
e |----------------|-----------------|----------------|-----------------|
B |----------------|-----------------|----------------|-----------------|
G |----------------|-----------------|---9------------|---11------------|
D |-9-7-9--9-9-9-7-|-9-12-9--9-9-9-7-|-9-7-9--9-9-9-7-|-9-9--9--9-9-9-7-|
A |-7-5-7--7-7-7-5-|-7-10-7--7-7-7-5-|-7---7--7-7-7-5-|-7----7--7-7-7-5-|
E |----------------|-----------------|----------------|-----------------|
e |------|------|
B |------|------|
G |------|------|
D |-5----|-7----|
A |-3----|-5----|
E |------|------|
You can probably......
Ref:
e |------|------|----------------|-----------------|
B |------|------|----------------|-----------------|
G |------|------|----------------|-----------------|
D |------|------|----------------|-----------------|
A |-5----|-7----|-9-7-9--9-9-9-7-|-9-12-9--9-9-9-7-|
E |-3----|-5----|-7-5-7--7-7-7-5-|-7-10-7--7-7-7-5-|
Oh, beer goggles.
e |------|------|------|------|
B |------|------|------|------|
G |------|------|------|------|
D |------|------|------|------|
A |-5----|-7----|-3----|-5----|
E |-3----|-5----|-1----|-3----|




Ваше мнение



Капча