BAD MOON RISING - Lagwagon
Chords:
Db Ab F#
e --4----4----2---
B --6----4----2---
G --6----5----3---
D --6----6----4---
A --4----6----4---
E -------4----2---
F#5 Db5 Ab5
e ----------------
B ----------------
G -------6--------
D --4----6----6---
A --4----4----6---
E --2---------4---
Parts:
* Verse:
Db--Db--Ab--F#--Db--Db--Db--Db--
* Chorus:
F#5-F#5-F#5-F#5-Db5-Db5-Db5-Db5-Ab5-Ab5-F#5-F#5-Db5-Db5-Db5-Db5-
* Solo-Verse:
2x Verse
+ 1x Chorus (But No Powerchords)
* Solo:
first: B --6-6-66-44-22-6-9-99-99-99-- (2x)
than: G ---2-3--
dan: B -77-777-h97-7-66-666-h76-6-44-444-h64-4-4--2-22-2--
(The rythm isn't completely right)
Structure:
Verse 4x
Chorus
Verse 4x
Chorus
Solo-Verse + Solo
Verse 4x
Chorus (2x)




Ваше мнение



Капча