ALIEN 8 - Lagwagon
By: Sebastian Sander ; [email protected]
Chords:
A B D E F#
e|--------------------------------------------------------------------|
B|--------------------------------------------------------------------|
G|------------7----9--------------------------------------------------|
D|--7----9----7----9----4---------------------------------------------|
A|--7----9----5----7----4---------------------------------------------|
E|--5----7--------------2---------------------------------------------|
Solo:
e|--------------------------------------------------------------------|
B|--------0--2--0-----3--2--0--3--2--0--2--0------2-2-2-2-3-3-2-------|
G|-----2-----------2--------------------------2---2-2-2-2-2-2-2-------|
D|--2---------------------------------------------2-2-2-2-2-2-2-------|
A|--------------------------------------------------------------------|
E|--------------------------------------------------------------------|
e|-------------------2-2-2-2-3-3-2-2----------------------------------|
B|--4-4-4-4-5-5-4-4--3-3-3-3-3-3-3-3----------------------------------|
G|--4-4-4-4-4-4-4-4--2-2-2-2-2-2-2-2-------------------7-----4--------|
D|--4-4-4-4-4-4-4-4-------------------2-2-2-2-7-7-7-7--7--4--4--2--7--|
A|------------------------------------2-2-2-2-7-7-7-7--5--4--2--2--7--|
E|------------------------------------0-0-0-0-5-5-5-5-----2-----0--5--|
Verses played slowly; Chorus and Solo very fast
Verse1:
A
Would it make you feel much better
B
If it was you against the world
D
If you were an alien
A
If it were conspiracy
A
and would it hurt to live in comfort
B
If you found someone to trust
D
If you knew that you were with us
E A
If we shared a common goal
Chorus:
A B
But you will isolate, alienate
D
No one can appreciate
E A
the poor miss understood
D F# B E A
Can you see that I don't care anymore
Solo
Verse2:
A
Do you ever stop to listen
B
Are you a martyr for your pride
D
Does it make you feel much better
E A
When you were an Alien?
Chorus




Ваше мнение



Капча