-------------------------------------------------------------------------------
Heaven's a lie - Lacuna Coil
-------------------------------------------------------------------------------
Tabbed by:jovxin1
Email:[email protected]

Tuning:Standard

intro and outro: x 4

e|-2-33-2-0-------2-33-2-0-55------------------------------------------------
B|---------------------------------------------------------------------------
G|---------------------------------------------------------------------------
D|---------------------------------------------------------------------------
A|---------------------------------------------------------------------------
E|---------------------------------------------------------------------------

main riff: X 2

e|---------------------------------------------------------------------------
B|---------------------------------------------------------------------------
G|-------5-5----------------------------------5-5----------------------------
D|-2-2---5-5---7-7---5-5---7-7----------2-2---5-5---7-7---5-5---4-4----------
A|-2-2---3-3---7-7---5-5---7-7----------2-2---3-3---7-7---5-5---4-4----------
E|-0-0---------5-5---3-3---5-5----------0-0---------5-5---3-3---2-2----------

verse riff
e|---------------------------------------------------------------------------
B|---------------------------------------------------------------------------
G|-------5-5----------------------------------5-5----------------------------
D|-2-2---5-5---7-7---5-5---7-7----------2-2---5-5---7-7---5-5---4-4----------
A|-2-2---3-3---7-7---5-5---7-7----------2-2---3-3---7-7---5-5---4-4----------
E|-0-0---------5-5---3-3---5-5----------0-0---------5-5---3-3---2-2----------
. . . . . . . . . . . . . . . . . . . .
p.m.

pre-chorus and bridge

e|-2-333-2---2-332-0---2-333-2---2-333-2-5-----------------------------------
B|---------------------------------------------------------------------------
G|---------------------------------------------------------------------------
D|---------------------------------------------------------------------------
A|---------------------------------------------------------------------------
E|---------------------------------------------------------------------------

this is my first tab so i hope it will be good!
=============================================================================




Ваше мнение



Капча