It's my first tab...hope you'll like it....

e/------------------------------------/
b/------------------------------------/
g/---4---4---4---4---5---5---5---5----/
d/------------------------------------/
a/-0---0---0---0---0---0---0---0------/
E/------------------------------------/

e/------------------------------------/
b/------------------------------------/
g/---4---4---4---4---2---2---2---2----/
d/-3---3---3---3---3---3---3---3------/
a/------------------------------------/
E/------------------------------------/

e/------------------------------------/
b/---10/13---10----10---13---10-------/
g/--------------9---------------9---9-/
d/--------------------------------10--/
a/------------------------------------/
E/------------------------------------/

e/------------------------------------/
b/--10--9--10--10-----------10--------/
g/----------------10--7--10----10--7--/
d/------------------------------------/
a/------------------------------------/
E/------------------------------------/

e/------------------------------------/
b/------------------------------------/
g/----7----10----9----7---------------/
d/--9---------------------------------/
a/------------------------------------/
E/------------------------------------/




Ваше мнение



Капча