Versiegelt Glanzumstromt

Intro: _
--------------------------|
--------------------------| |
|----------2--0----------|----------2--0-----0--2-| |
|-------2--------3--2--3-|-------2--------3-------| |
|-0--3-------------------|-0--3-------------------| |
--------------------------|
> x4 раза
--------------------------| /
--------------------------| |
|----------2--4--2--0--2-|----------2--0----------| |
|-------3----------------|-------2--------3--2--3-| |
|-0--3-------------------|-0--3-------------------| |
--------------------------| _/

Бой: -/-// (* - Бой играется два раза подряд)
вниз
/ вверх
- пауза

Am*
Die Stille hat mich angeruhrt
Dm*
Es war dein Blick War dein Erscheinen
Am*
Und der Himmel hat sich aufgetan
Em E
Nur fur mich und ganz im Stillen

F#m*
Hingerissen und stumm bewundert
D*
Von deinem Antlitz angetan
Hm*
Voller Ehrfurcht dir erlegen
C#7*
So bin ich willenlos in deiner Hand

Проигрыш: Am* Dm* Am* Em E - x2 раза
F#m* D C#7 - х2 раза

Trockne Tranen dir geopfert
Giesse deine Schonheit auf mein Fleisch
Entfalte deiner Flugel Reize
Entfuhre mich in Zartlichkeit

Spreize Lust im Tempel brennend
Steigend deine Blosse zungelnd
Im freien Fall mich dir ergeben
Nackt umwunden in dein Reich

Dir verfallen und verloren
Schweigend sterben dich nur traumen
Du im Licht vom Glanz umworben
Ich im Dunkeln unerkannt




Ваше мнение



Капча