QUE HONGO AMANTES DEL GOTICO LES TRAIGO UN TAB DE ALUSINE
No Blind Eyes Can See
Lacrimosa
INTRO:
CHELO
e|---------------------------------------------------------------------------|
B|---------------------------------------------------------------------------|
G|---------------------------------------------------------------------------|
D|---------------------------------------------5-----5-4-2-0-2-4-5-7-10---9--|
A|---3--2-----5--7--1---2--------3--2----5--7--------------------------------|
E|-0---------------------------0---------------------------------------------|
|-----------------------------------------------------------------|
|---------------------------------------------------------12--10--|
|--7--9-----------------------------------7--9--12----------------|
|--------8---9-----------7-9-10-----9-----------------------------|
|-------------------7-10------------------------------------------|
|-----------------------------------------------------------------|
|---------------------------------------------------------------------------|
|------------------------------------------------------------------12---10--|
|-------------7--9-----------------------------------7--9--12---------------|
|--10---9-----------8----9----------7-9-10----9-----------------------------|
|------------------------------7-10-----------------------------------------|
|---------------------------------------------------------------------------|
VERSO1:
|GUITARA1:distorsion
|--------------------------------------------------------|
|--------------------------------------------------------|
|--------------------------------------------------------|
|---7-------------7------------9-------------5-------7---|
|---9-------------5------------7---------3-3-3---5-5-5---|------|
|---0--------------------------0-------------------------| |
| PM. ... |
AQUI ENTRAN DOS GUITARRAS MAS |FIG1
|GUITARA2:LIMPIA |
|--------------------------------------------------------| |X2
|--------------------------------------------------------|------|
|--------------------------------------------5-------7---| |
|-------5-4-5-------4-5-4--------5-4-5-----5-------7-----| |
|-----2-----------5------------2---------3-------5-------| |
|---0----------------------------------------------------| |
|GUITARA3: TOCA ALGUNOS ARPEGIOS EN Em D Em C-D -----------------|
DESPUES
|GUITARA1
|---------------------------------------------------------|
|---------------------------------------------------------|
|---------------------------------------------------------|
|---------------------------------------------------------|
|---9--------------7------------7------------5-------7----|-----|
|---7--------------5------------9--------3-3-3---5-5-5----| |
| PM. ... |
|GUITARA2 |FIG2
|---------------------------------------------------------| |
|---------------------------------------------------------|-----|X2
|---------------------------------------------------------| |
|--------------------------------------------5--------7---| |
|-----5-4-5-----------4-5-0-------5-4-5----5--------7-----| |
|----------------------------------------3--------5-------| |
|GUITARA3: TOCA ARPEGIOS EN Bm A Bm G-A ----------------------|
ENTONCES..
-FIG1 X2
-FIG2 X2
COROS
|-----------------------------------------------|
|-----------------------------------------------|
|-----4-----2-------------2--2-----4----2^4-----|
|--2-----5------4---0--1--------4------------2--|---|
|-----------------------------------------------| |
|-----------------------------------------------| |FIG3
|
|-----------------------------------| |X2
|-----------------------------------| |
|-----------4--2--------------------|---------------|
|--2--4--5--------5--4--2--1--2--2--|
|-----------------------------------|
|-----------------------------------|
VERSO2:
-TECLADOS: Gm - F#m - Gm - F#m
-GuitarA2 ENTRA...
|-------------------------------------------------|
|------------------2-3----------------------------|
|------0-0-----3-------5-3------------------------|
|----0-------0-------------4----------------------|-----|
|------------------------------5-4--5-4--5-4-2-4--| |
|--3----------------------------------------------| |FIG4
|
|-------------------------------------------------| |X2
|------------------2-3----------------------------| |
|------0-0-----3-------5-3------------------------|-----|
|----0-------0-------------4---------------0------|
|------------------------------5-4--0-2--4---4----|
|--3----------------------------------------------|
INTERLUDIO:
-ORGANO: G - F - G - F X2
VERSO3:
-FIG1 X2
-FIG2 X2
CORO:-FIG3 X2 alone
-FIG3 X2
|----7---7---7---7----7---7---8---7---7---7---7---7---7---7---7---7--|
|--5---7---8---7---10---7---7---7---5---7---8---7---4---4---5---5----|FIG5
|--------------------------------------------------------------------|
|--------------------------------------------------------------------|
|--------------------------------------------------------------------|
|--------------------------------------------------------------------|
|----7---7---7---7----7---7---8---7---7---7---7---7---7---7----------|
|--5---7---8---7---10---7---7---7---5---7---8---7---4---4---5--------|
|--------------------------------------------------------------------|
|--------------------------------------------------------------------|
|--------------------------------------------------------------------|
|--------------------------------------------------------------------|
VERSE4:
- Gm - F#m - Gm - F#m
-Guitar2 plays FIG4 X2
VERSE5:
-FIG1 X2
-FIG2 X2
OUTRO:
-FIG3 X1 solo:
|--15----14----11----12----15----14----12---11-12---|
|---------------------------------------------------|
|---------------------------------------------------|
|---------------------------------------------------|
|---------------------------------------------------|
|---------------------------------------------------|
-FIG3 X1
solo:
|--19----17----------------19----17----19-----------|
|--------------16----17----------------------17-----|EL SOLO SE HACE
|---------------------------------------------------|CON DOS GUITARRAS
|---------------------------------------------------|SIMULTANEAS
|---------------------------------------------------|
|---------------------------------------------------|
-FIG3 X3 Y FIG5 X3 soloX3:
|--15----14----11-12-14-15-12-----19-17-15-17-19----19-17-15-----|
|------------------------------------------------------------17--|
|----------------------------------------------------------------|
|----------------------------------------------------------------|
|----------------------------------------------------------------|X3
|----------------------------------------------------------------|
-FIG3 X5 FIG5 X5 :
|-----|------------------------------------------|
|-----|------------------------------------------|
|-----|------------------------------------------|
|-----|-------------------------4-4--------------|---|
|-----|-----2------------4-4----2-2------5-----4-| |
|-12/-|-0-0-0--0-2-2-2-2-2-2--0------3-3-3-2-2-2-| |
PM. ......... . ... ... |X5
|-------------------------------------| |
|-------------------------------------| |
|-------------------------------------|--------------|
|------------5-5-------4-4-------9-9--|
|-----2--3-3-3-3---2-2-2-2---7-7-7-7--|
|-0-000-0---------0---------0---------|
. .. .... .... ....
solo:
|-11/12-14-12-14-15-15-14------19191919-17-19--|
|----------------------------------------------|
|----------------------------------------------|
|----------------------------------------------|
|----------------------------------------------|
|----------------------------------------------|
|---191919--17-17--15-15--14-14-11-12etc--|
|-----------------------------------------|
|-----------------------------------------|
|-----------------------------------------|
|-----------------------------------------|
|-----------------------------------------|
FINAL:
|-----|
|-----|
|-----|
|-----|
|--2--|
|--0--|




Ваше мнение



Капча