This is a pretty good song
rhytm guitar. and the solo kicks in after second pm
E--------------------------------------------------------------------------
B--------------------------------------------------------------------------
G-2-----------------------2-----------------------2--4-5-4-2--2/4-5-/7-----
D-2--3/-5--5--------------2--3/-5--5------------------------------------5--
A-0--3/-5--5-5-5-5-5-5----0--3/-5--5-5-5-5-5-------------------------------
E----1/-3--3-3-3-3-3-3pm-----1/-3--3-3-3-3-3-pm----------------------------
E--------------------------------------------------------------------------
B--------------------------------------------------------------------------
G--2/--4--2--4--5/-4/-2--2--2--5--5--2--5--4--2--4--2----------------------
D------------------------------------------------------4--2----------------
A------------------------------------------------------------4--2-4/-5-----
E--------------------------------------------------------------------------
E-5-7-8--5-7-8--5-7-8--5-7-8--5-7-8--5-5-5-5--8--5-5-5-5-5--8--10-11-10-7--
B--------------------------------------------------------------------------
G--------------------------------------------------------------------------
D--------------------------------------------------------------------------
A--------------------------------------------------------------------------
E--------------------------------------------------------------------------
E--10-7-5--2---------------------------------------------------------------
B------------4--6--8--6--4/-3--5--7-------------------------5--------------
G-----------------------------------3--5-6-5-7-9-7-5-9-5-7-----5-----------
D-----------------------------------------------------------------5-7------
A---------------------------------------------------------------------3-5--
E--------------------------------------------------------------------------
E-------------------------------------------5-7-7-7-7-7/-12-5-5-5-5-5-5-7-
B-------------------------------------------------------------------------
G-------------------------------------------------------------------------
D-------------------------------------------------------------------------
A-7-----------------------------------------------------------------------
E----5--5--7--9--7--5--5--7--8--10--9--5----------------------------------
E-7-7-7-7-7--8-8-8-8-8--10-10-10-10-10--12-12-12-12-12/-16-18/-16---------
B------------------------------------------------------------------17/-12-
G-------------------------------------------------------------------------
D-------------------------------------------------------------------------
A-------------------------------------------------------------------------
E-------------------------------------------------------------------------
E----------------------------------------------19/-21-/-19----------------
B--19/------------------------------------------------------20/-22-20-----
G------20-22-20-22-21-19-21-19-17-19--21-19----------------------------20-
D-------------------------------------------------------------------------
A-------------------------------------------------------------------------
E-------------------------------------------------------------------------
E---------------------------------------------------17-17-17-17/-15-13-15-
B-------------------------------------------------------------------------
G--24--23--21--22-20--21--19-17-17-17-19-21-21-19-------------------------
D-------------------------------------------------------------------------
A-------------------------------------------------------------------------
E-------------------------------------------------------------------------
thats it all the same note for the rhytm gutar are played under the solo
listen to the song
Alicia Te Amo




Ваше мнение



Капча